  0
SECTION
  2
HEADER
  9
$ACADVER
  1
AC1014
  9
$ACADMAINTVER
 70
     0
  9
$DWGCODEPAGE
  3
ANSI_1252
  9
$INSBASE
 10
0.0
 20
0.0
 30
0.0
  9
$EXTMIN
 10
9.106901
 20
6.253213
 30
-0.001526
  9
$EXTMAX
 10
47.863748
 20
10.765098
 30
0.0
  9
$LIMMIN
 10
0.0
 20
0.0
  9
$LIMMAX
 10
420.0
 20
297.0
  9
$ORTHOMODE
 70
     1
  9
$REGENMODE
 70
     1
  9
$FILLMODE
 70
     1
  9
$QTEXTMODE
 70
     0
  9
$MIRRTEXT
 70
     1
  9
$DRAGMODE
 70
     2
  9
$LTSCALE
 40
0.04
  9
$OSMODE
 70
   137
  9
$ATTMODE
 70
     1
  9
$TEXTSIZE
 40
0.09375
  9
$TRACEWID
 40
1.0
  9
$TEXTSTYLE
  7
STYLE1
  9
$CLAYER
  8
0
  9
$CELTYPE
  6
BYLAYER
  9
$CECOLOR
 62
   256
  9
$CELTSCALE
 40
1.0
  9
$DELOBJ
 70
     1
  9
$DISPSILH
 70
     0
  9
$DIMSCALE
 40
1.0
  9
$DIMASZ
 40
2.5
  9
$DIMEXO
 40
0.625
  9
$DIMDLI
 40
3.75
  9
$DIMRND
 40
0.0
  9
$DIMDLE
 40
0.0
  9
$DIMEXE
 40
1.25
  9
$DIMTP
 40
0.0
  9
$DIMTM
 40
0.0
  9
$DIMTXT
 40
2.5
  9
$DIMCEN
 40
2.5
  9
$DIMTSZ
 40
0.0
  9
$DIMTOL
 70
     0
  9
$DIMLIM
 70
     0
  9
$DIMTIH
 70
     0
  9
$DIMTOH
 70
     0
  9
$DIMSE1
 70
     0
  9
$DIMSE2
 70
     0
  9
$DIMTAD
 70
     1
  9
$DIMZIN
 70
     8
  9
$DIMBLK
  1

  9
$DIMASO
 70
     1
  9
$DIMSHO
 70
     1
  9
$DIMPOST
  1

  9
$DIMAPOST
  1

  9
$DIMALT
 70
     0
  9
$DIMALTD
 70
     4
  9
$DIMALTF
 40
0.0394
  9
$DIMLFAC
 40
1.0
  9
$DIMTOFL
 70
     1
  9
$DIMTVP
 40
0.0
  9
$DIMTIX
 70
     0
  9
$DIMSOXD
 70
     0
  9
$DIMSAH
 70
     0
  9
$DIMBLK1
  1

  9
$DIMBLK2
  1

  9
$DIMSTYLE
  2
STANDARD
  9
$DIMCLRD
 70
     0
  9
$DIMCLRE
 70
     0
  9
$DIMCLRT
 70
     0
  9
$DIMTFAC
 40
1.0
  9
$DIMGAP
 40
0.625
  9
$DIMJUST
 70
     0
  9
$DIMSD1
 70
     0
  9
$DIMSD2
 70
     0
  9
$DIMTOLJ
 70
     1
  9
$DIMTZIN
 70
     0
  9
$DIMALTZ
 70
     0
  9
$DIMALTTZ
 70
     0
  9
$DIMFIT
 70
     3
  9
$DIMUPT
 70
     0
  9
$DIMUNIT
 70
     8
  9
$DIMDEC
 70
     4
  9
$DIMTDEC
 70
     4
  9
$DIMALTU
 70
     8
  9
$DIMALTTD
 70
     4
  9
$DIMTXSTY
  7
STANDARD
  9
$DIMAUNIT
 70
     0
  9
$LUNITS
 70
     4
  9
$LUPREC
 70
     4
  9
$SKETCHINC
 40
1.0
  9
$FILLETRAD
 40
0.0
  9
$AUNITS
 70
     0
  9
$AUPREC
 70
     0
  9
$MENU
  1
.
  9
$ELEVATION
 40
0.0
  9
$PELEVATION
 40
0.0
  9
$THICKNESS
 40
0.0
  9
$LIMCHECK
 70
     0
  9
$BLIPMODE
 70
     0
  9
$CHAMFERA
 40
10.0
  9
$CHAMFERB
 40
10.0
  9
$CHAMFERC
 40
20.0
  9
$CHAMFERD
 40
0.0
  9
$SKPOLY
 70
     0
  9
$TDCREATE
 40
2451158.432431366
  9
$TDUPDATE
 40
2451149.815008448
  9
$TDINDWG
 40
0.5627098380
  9
$TDUSRTIMER
 40
0.5627098380
  9
$USRTIMER
 70
     1
  9
$ANGBASE
 50
0.0
  9
$ANGDIR
 70
     0
  9
$PDMODE
 70
     3
  9
$PDSIZE
 40
0.25
  9
$PLINEWID
 40
0.0
  9
$COORDS
 70
     1
  9
$SPLFRAME
 70
     0
  9
$SPLINETYPE
 70
     6
  9
$SPLINESEGS
 70
     8
  9
$ATTDIA
 70
     0
  9
$ATTREQ
 70
     1
  9
$HANDLING
 70
     1
  9
$HANDSEED
  5
3962
  9
$SURFTAB1
 70
     6
  9
$SURFTAB2
 70
     6
  9
$SURFTYPE
 70
     6
  9
$SURFU
 70
     6
  9
$SURFV
 70
     6
  9
$UCSNAME
  2

  9
$UCSORG
 10
0.0
 20
0.0
 30
0.0
  9
$UCSXDIR
 10
1.0
 20
0.0
 30
0.0
  9
$UCSYDIR
 10
0.0
 20
1.0
 30
0.0
  9
$PUCSNAME
  2

  9
$PUCSORG
 10
0.0
 20
0.0
 30
0.0
  9
$PUCSXDIR
 10
1.0
 20
0.0
 30
0.0
  9
$PUCSYDIR
 10
0.0
 20
1.0
 30
0.0
  9
$USERI1
 70
     0
  9
$USERI2
 70
     0
  9
$USERI3
 70
     0
  9
$USERI4
 70
     0
  9
$USERI5
 70
     0
  9
$USERR1
 40
0.0
  9
$USERR2
 40
0.0
  9
$USERR3
 40
0.0
  9
$USERR4
 40
0.0
  9
$USERR5
 40
0.0
  9
$WORLDVIEW
 70
     1
  9
$SHADEDGE
 70
     3
  9
$SHADEDIF
 70
    70
  9
$TILEMODE
 70
     1
  9
$MAXACTVP
 70
    48
  9
$PINSBASE
 10
0.0
 20
0.0
 30
0.0
  9
$PLIMCHECK
 70
     0
  9
$PEXTMIN
 10
1.000000E+20
 20
1.000000E+20
 30
1.000000E+20
  9
$PEXTMAX
 10
-1.000000E+20
 20
-1.000000E+20
 30
-1.000000E+20
  9
$PLIMMIN
 10
0.0
 20
0.0
  9
$PLIMMAX
 10
420.0
 20
297.0
  9
$UNITMODE
 70
     0
  9
$VISRETAIN
 70
     1
  9
$PLINEGEN
 70
     0
  9
$PSLTSCALE
 70
     1
  9
$TREEDEPTH
 70
  3020
  9
$PICKSTYLE
 70
     1
  9
$CMLSTYLE
  2
STANDARD
  9
$CMLJUST
 70
     0
  9
$CMLSCALE
 40
20.0
  9
$PROXYGRAPHICS
 70
     1
  9
$MEASUREMENT
 70
     1
  0
ENDSEC
  0
SECTION
  2
CLASSES
  0
CLASS
  1
RASTERVARIABLES
  2
AcDbRasterVariables
  3
ISM
 90
        0
280
     0
281
     0
  0
CLASS
  1
IMAGEDEF
  2
AcDbRasterImageDef
  3
ISM
 90
        0
280
     0
281
     0
  0
CLASS
  1
IMAGEDEF_REACTOR
  2
AcDbRasterImageDefReactor
  3
ISM
 90
        1
280
     0
281
     0
  0
CLASS
  1
IMAGE
  2
AcDbRasterImage
  3
ISM
 90
      127
280
     0
281
     1
  0
CLASS
  1
LWPOLYLINE
  2
AcDbPolyline
  3
"AutoCAD"
 90
        0
280
     0
281
     1
  0
CLASS
  1
DICTIONARYVAR
  2
AcDbDictionaryVar
  3
"AutoCAD"
 90
        0
280
     0
281
     0
  0
CLASS
  1
HATCH
  2
AcDbHatch
  3
"ACAD_SEDONA"
 90
        0
280
     0
281
     1
  0
ENDSEC
  0
SECTION
  2
TABLES
  0
TABLE
  2
VPORT
  5
8
100
AcDbSymbolTable
 70
     2
  0
VPORT
  5
3961
100
AcDbSymbolTableRecord
100
AcDbViewportTableRecord
  2
*ACTIVE
 70
     0
 10
0.0
 20
0.0
 11
1.0
 21
1.0
 12
28.485324
 22
8.509155
 13
0.0
 23
0.0
 14
10.0
 24
10.0
 15
10.0
 25
10.0
 16
0.0
 26
0.0
 36
1.0
 17
0.0
 27
0.0
 37
0.0
 40
26.411806
 41
1.565289
 42
50.0
 43
0.0
 44
0.0
 50
0.0
 51
0.0
 71
     0
 72
   100
 73
     1
 74
     1
 75
     0
 76
     0
 77
     0
 78
     0
  0
ENDTAB
  0
TABLE
  2
LTYPE
  5
5
100
AcDbSymbolTable
 70
     1
  0
LTYPE
  5
12
100
AcDbSymbolTableRecord
100
AcDbLinetypeTableRecord
  2
BYBLOCK
 70
     0
  3

 72
    65
 73
     0
 40
0.0
  0
LTYPE
  5
13
100
AcDbSymbolTableRecord
100
AcDbLinetypeTableRecord
  2
BYLAYER
 70
     0
  3

 72
    65
 73
     0
 40
0.0
  0
LTYPE
  5
14
100
AcDbSymbolTableRecord
100
AcDbLinetypeTableRecord
  2
CONTINUOUS
 70
     0
  3
Solid line
 72
    65
 73
     0
 40
0.0
  0
ENDTAB
  0
TABLE
  2
LAYER
  5
2
100
AcDbSymbolTable
 70
     1
  0
LAYER
  5
E
100
AcDbSymbolTableRecord
100
AcDbLayerTableRecord
  2
0
 70
     0
 62
     7
  6
CONTINUOUS
  0
ENDTAB
  0
TABLE
  2
STYLE
  5
3
100
AcDbSymbolTable
 70
     2
  0
STYLE
  5
F
100
AcDbSymbolTableRecord
100
AcDbTextStyleTableRecord
  2
STANDARD
 70
     0
 40
0.0
 41
1.0
 50
0.0
 71
     0
 42
2.5
  3
txt
  4

  0
STYLE
  5
36AA
100
AcDbSymbolTableRecord
100
AcDbTextStyleTableRecord
  2
STYLE1
 70
     0
 40
0.09375
 41
1.0
 50
0.0
 71
     0
 42
0.09375
  3
simplex.shx
  4

  0
ENDTAB
  0
TABLE
  2
VIEW
  5
6
100
AcDbSymbolTable
 70
     0
  0
ENDTAB
  0
TABLE
  2
UCS
  5
7
100
AcDbSymbolTable
 70
     0
  0
ENDTAB
  0
TABLE
  2
APPID
  5
9
100
AcDbSymbolTable
 70
     1
  0
APPID
  5
10
100
AcDbSymbolTableRecord
100
AcDbRegAppTableRecord
  2
ACAD
 70
     0
  0
ENDTAB
  0
TABLE
  2
DIMSTYLE
  5
A
100
AcDbSymbolTable
 70
     1
  0
DIMSTYLE
105
1D
100
AcDbSymbolTableRecord
100
AcDbDimStyleTableRecord
  2
STANDARD
 70
     0
  3

  4

  5

  6

  7

 40
1.0
 41
0.18
 42
0.0625
 43
0.38
 44
0.18
 45
0.0
 46
0.0
 47
0.0
 48
0.0
140
0.18
141
0.09
142
0.0
143
25.4
144
1.0
145
0.0
146
1.0
147
0.09
 71
     0
 72
     0
 73
     1
 74
     1
 75
     0
 76
     0
 77
     0
 78
     0
170
     0
171
     2
172
     0
173
     0
174
     0
175
     0
176
     0
177
     0
178
     0
270
     2
271
     4
272
     4
273
     2
274
     2
340
F
275
     0
280
     0
281
     0
282
     0
283
     1
284
     0
285
     0
286
     0
287
     3
288
     0
  0
ENDTAB
  0
TABLE
  2
BLOCK_RECORD
  5
1
100
AcDbSymbolTable
 70
     2
  0
BLOCK_RECORD
  5
18
100
AcDbSymbolTableRecord
100
AcDbBlockTableRecord
  2
*MODEL_SPACE
  0
BLOCK_RECORD
  5
15
100
AcDbSymbolTableRecord
100
AcDbBlockTableRecord
  2
*PAPER_SPACE
  0
BLOCK_RECORD
  5
3930
100
AcDbSymbolTableRecord
100
AcDbBlockTableRecord
  2
6131_E
  0
BLOCK_RECORD
  5
3951
100
AcDbSymbolTableRecord
100
AcDbBlockTableRecord
  2
6131_C
  0
ENDTAB
  0
ENDSEC
  0
SECTION
  2
BLOCKS
  0
BLOCK
  5
19
100
AcDbEntity
  8
0
100
AcDbBlockBegin
  2
*MODEL_SPACE
 70
     0
 10
0.0
 20
0.0
 30
0.0
  3
*MODEL_SPACE
  1

  0
ENDBLK
  5
1A
100
AcDbEntity
  8
0
100
AcDbBlockEnd
  0
BLOCK
  5
16
100
AcDbEntity
 67
     1
  8
0
100
AcDbBlockBegin
  2
*PAPER_SPACE
 70
     0
 10
0.0
 20
0.0
 30
0.0
  3
*PAPER_SPACE
  1

  0
ENDBLK
  5
17
100
AcDbEntity
 67
     1
  8
0
100
AcDbBlockEnd
  0
BLOCK
  5
3931
100
AcDbEntity
  8
0
100
AcDbBlockBegin
  2
6131_E
 70
     0
 10
0.0
 20
0.0
 30
0.0
  3
6131_E
  1

  0
LINE
  5
3932
100
AcDbEntity
  8
0
100
AcDbLine
 10
0.0
 20
0.0
 30
0.0
 11
24.975512
 21
0.0
 31
0.0
  0
LINE
  5
3933
100
AcDbEntity
  8
0
100
AcDbLine
 10
0.0
 20
-4.5
 30
0.0
 11
24.975512
 21
-4.5
 31
0.0
  0
LINE
  5
3934
100
AcDbEntity
  8
0
100
AcDbLine
 10
0.0
 20
-4.5
 30
0.0
 11
0.0
 21
0.0
 31
0.0
  0
LINE
  5
3935
100
AcDbEntity
  8
0
100
AcDbLine
 10
3.352211
 20
-4.5
 30
0.0
 11
3.352211
 21
-2.625
 31
0.0
  0
LINE
  5
3936
100
AcDbEntity
  8
0
100
AcDbLine
 10
0.352211
 20
-4.5
 30
0.0
 11
0.352211
 21
-2.625
 31
0.0
  0
LINE
  5
3937
100
AcDbEntity
  8
0
100
AcDbLine
 10
1.852211
 20
-4.5
 30
0.0
 11
1.852211
 21
-2.625
 31
0.0
  0
LINE
  5
3938
100
AcDbEntity
  8
0
100
AcDbLine
 10
0.0
 20
-2.625
 30
0.0
 11
0.352211
 21
-2.625
 31
0.0
  0
LINE
  5
3939
100
AcDbEntity
  8
0
100
AcDbLine
 10
1.852211
 20
-2.625
 30
0.0
 11
3.352211
 21
-2.625
 31
0.0
  0
LINE
  5
393A
100
AcDbEntity
  8
0
100
AcDbLine
 10
24.975512
 20
-4.5
 30
0.0
 11
24.975512
 21
0.0
 31
0.0
  0
LINE
  5
393B
100
AcDbEntity
  8
0
100
AcDbLine
 10
19.852211
 20
-2.625
 30
0.0
 11
21.352211
 21
-2.625
 31
0.0
  0
LINE
  5
393C
100
AcDbEntity
  8
0
100
AcDbLine
 10
10.852211
 20
-2.625
 30
0.0
 11
12.352211
 21
-2.625
 31
0.0
  0
LINE
  5
393D
100
AcDbEntity
  8
0
100
AcDbLine
 10
7.852211
 20
-2.625
 30
0.0
 11
9.352211
 21
-2.625
 31
0.0
  0
LINE
  5
393E
100
AcDbEntity
  8
0
100
AcDbLine
 10
7.852211
 20
-4.5
 30
0.0
 11
7.852211
 21
-2.625
 31
0.0
  0
LINE
  5
393F
100
AcDbEntity
  8
0
100
AcDbLine
 10
4.852211
 20
-4.5
 30
0.0
 11
4.852211
 21
-2.625
 31
0.0
  0
LINE
  5
3940
100
AcDbEntity
  8
0
100
AcDbLine
 10
4.852211
 20
-2.625
 30
0.0
 11
6.352211
 21
-2.625
 31
0.0
  0
LINE
  5
3941
100
AcDbEntity
  8
0
100
AcDbLine
 10
6.352211
 20
-4.5
 30
0.0
 11
6.352211
 21
-2.625
 31
0.0
  0
LINE
  5
3942
100
AcDbEntity
  8
0
100
AcDbLine
 10
9.352211
 20
-4.5
 30
0.0
 11
9.352211
 21
-2.625
 31
0.0
  0
LINE
  5
3943
100
AcDbEntity
  8
0
100
AcDbLine
 10
10.852211
 20
-4.5
 30
0.0
 11
10.852211
 21
-2.625
 31
0.0
  0
LINE
  5
3944
100
AcDbEntity
  8
0
100
AcDbLine
 10
13.852211
 20
-2.625
 30
0.0
 11
15.352211
 21
-2.625
 31
0.0
  0
LINE
  5
3945
100
AcDbEntity
  8
0
100
AcDbLine
 10
12.352211
 20
-4.5
 30
0.0
 11
12.352211
 21
-2.625
 31
0.0
  0
LINE
  5
3946
100
AcDbEntity
  8
0
100
AcDbLine
 10
13.852211
 20
-4.5
 30
0.0
 11
13.852211
 21
-2.625
 31
0.0
  0
LINE
  5
3947
100
AcDbEntity
  8
0
100
AcDbLine
 10
15.352211
 20
-4.5
 30
0.0
 11
15.352211
 21
-2.625
 31
0.0
  0
LINE
  5
3948
100
AcDbEntity
  8
0
100
AcDbLine
 10
19.852211
 20
-4.5
 30
0.0
 11
19.852211
 21
-2.625
 31
0.0
  0
LINE
  5
3949
100
AcDbEntity
  8
0
100
AcDbLine
 10
18.352211
 20
-4.5
 30
0.0
 11
18.352211
 21
-2.625
 31
0.0
  0
LINE
  5
394A
100
AcDbEntity
  8
0
100
AcDbLine
 10
16.852211
 20
-2.625
 30
0.0
 11
18.352211
 21
-2.625
 31
0.0
  0
LINE
  5
394B
100
AcDbEntity
  8
0
100
AcDbLine
 10
16.852211
 20
-4.5
 30
0.0
 11
16.852211
 21
-2.625
 31
0.0
  0
LINE
  5
394C
100
AcDbEntity
  8
0
100
AcDbLine
 10
22.852211
 20
-2.625
 30
0.0
 11
24.352211
 21
-2.625
 31
0.0
  0
LINE
  5
394D
100
AcDbEntity
  8
0
100
AcDbLine
 10
21.352211
 20
-4.5
 30
0.0
 11
21.352211
 21
-2.625
 31
0.0
  0
LINE
  5
394E
100
AcDbEntity
  8
0
100
AcDbLine
 10
22.852211
 20
-4.5
 30
0.0
 11
22.852211
 21
-2.625
 31
0.0
  0
LINE
  5
394F
100
AcDbEntity
  8
0
100
AcDbLine
 10
24.352211
 20
-4.5
 30
0.0
 11
24.352211
 21
-2.625
 31
0.0
  0
ENDBLK
  5
3950
100
AcDbEntity
  8
0
100
AcDbBlockEnd
  0
BLOCK
  5
3952
100
AcDbEntity
  8
0
100
AcDbBlockBegin
  2
6131_C
 70
     0
 10
0.0
 20
0.0
 30
0.0
  3
6131_C
  1

  0
LINE
  5
3953
100
AcDbEntity
  8
0
100
AcDbLine
 10
-1.125
 20
-5.39374
 30
0.0
 11
-1.125
 21
-0.89374
 31
0.0
  0
LINE
  5
3954
100
AcDbEntity
  8
0
100
AcDbLine
 10
0.0
 20
-5.39374
 30
0.0
 11
0.0
 21
-0.89374
 31
0.0
  0
LINE
  5
3955
100
AcDbEntity
  8
0
100
AcDbLine
 10
-1.125
 20
-5.39374
 30
0.0
 11
0.0
 21
-5.39374
 31
0.0
  0
ARC
  5
3956
100
AcDbEntity
  8
0
100
AcDbCircle
 10
-4.251215
 20
-5.986975
 30
0.0
 40
3.98314
100
AcDbArc
 50
8.5653
 51
38.292086
  0
LINE
  5
3957
100
AcDbEntity
  8
0
100
AcDbLine
 10
-1.125
 20
-0.89374
 30
0.0
 11
0.0
 21
-0.89374
 31
0.0
  0
ENDBLK
  5
3958
100
AcDbEntity
  8
0
100
AcDbBlockEnd
  0
ENDSEC
  0
SECTION
  2
ENTITIES
  0
LINE
  5
38EF
100
AcDbEntity
  8
0
100
AcDbLine
 10
9.128774
 20
6.257678
 30
0.0
 11
34.104286
 21
6.257678
 31
0.0
  0
LINE
  5
38F0
100
AcDbEntity
  8
0
100
AcDbLine
 10
47.843951
 20
6.257678
 30
0.0
 11
47.843951
 21
10.757678
 31
0.0
  0
LINE
  5
38F2
100
AcDbEntity
  8
0
100
AcDbLine
 10
9.128774
 20
6.257678
 30
0.0
 11
9.128774
 21
10.757678
 31
0.0
  0
LINE
  5
38F3
100
AcDbEntity
  8
0
100
AcDbLine
 10
9.128774
 20
10.757678
 30
0.0
 11
34.104286
 21
10.757678
 31
0.0
  0
LINE
  5
38F4
100
AcDbEntity
  8
0
100
AcDbLine
 10
9.480985
 20
6.257678
 30
0.0
 11
9.480985
 21
8.132678
 31
0.0
  0
LINE
  5
38F5
100
AcDbEntity
  8
0
100
AcDbLine
 10
9.128774
 20
8.132678
 30
0.0
 11
9.480985
 21
8.132678
 31
0.0
  0
LINE
  5
38F6
100
AcDbEntity
  8
0
100
AcDbLine
 10
10.980985
 20
6.257678
 30
0.0
 11
10.980985
 21
8.132678
 31
0.0
  0
LINE
  5
38F7
100
AcDbEntity
  8
0
100
AcDbLine
 10
12.480985
 20
6.257678
 30
0.0
 11
12.480985
 21
8.132678
 31
0.0
  0
LINE
  5
38F8
100
AcDbEntity
  8
0
100
AcDbLine
 10
13.980985
 20
6.257678
 30
0.0
 11
13.980985
 21
8.132678
 31
0.0
  0
LINE
  5
38F9
100
AcDbEntity
  8
0
100
AcDbLine
 10
10.980985
 20
8.132678
 30
0.0
 11
12.480985
 21
8.132678
 31
0.0
  0
LINE
  5
38FA
100
AcDbEntity
  8
0
100
AcDbLine
 10
13.980985
 20
8.132678
 30
0.0
 11
15.480985
 21
8.132678
 31
0.0
  0
LINE
  5
38FB
100
AcDbEntity
  8
0
100
AcDbLine
 10
15.480985
 20
6.257678
 30
0.0
 11
15.480985
 21
8.132678
 31
0.0
  0
LINE
  5
38FC
100
AcDbEntity
  8
0
100
AcDbLine
 10
18.480985
 20
6.257678
 30
0.0
 11
18.480985
 21
8.132678
 31
0.0
  0
LINE
  5
38FD
100
AcDbEntity
  8
0
100
AcDbLine
 10
16.980985
 20
8.132678
 30
0.0
 11
18.480985
 21
8.132678
 31
0.0
  0
LINE
  5
38FE
100
AcDbEntity
  8
0
100
AcDbLine
 10
16.980985
 20
6.257678
 30
0.0
 11
16.980985
 21
8.132678
 31
0.0
  0
LINE
  5
38FF
100
AcDbEntity
  8
0
100
AcDbLine
 10
21.480985
 20
6.257678
 30
0.0
 11
21.480985
 21
8.132678
 31
0.0
  0
LINE
  5
3900
100
AcDbEntity
  8
0
100
AcDbLine
 10
19.980985
 20
8.132678
 30
0.0
 11
21.480985
 21
8.132678
 31
0.0
  0
LINE
  5
3901
100
AcDbEntity
  8
0
100
AcDbLine
 10
19.980985
 20
6.257678
 30
0.0
 11
19.980985
 21
8.132678
 31
0.0
  0
LINE
  5
3902
100
AcDbEntity
  8
0
100
AcDbLine
 10
24.480985
 20
6.257678
 30
0.0
 11
24.480985
 21
8.132678
 31
0.0
  0
LINE
  5
3903
100
AcDbEntity
  8
0
100
AcDbLine
 10
22.980985
 20
8.132678
 30
0.0
 11
24.480985
 21
8.132678
 31
0.0
  0
LINE
  5
3904
100
AcDbEntity
  8
0
100
AcDbLine
 10
22.980985
 20
6.257678
 30
0.0
 11
22.980985
 21
8.132678
 31
0.0
  0
LINE
  5
3905
100
AcDbEntity
  8
0
100
AcDbLine
 10
27.480985
 20
6.257678
 30
0.0
 11
27.480985
 21
8.132678
 31
0.0
  0
LINE
  5
3906
100
AcDbEntity
  8
0
100
AcDbLine
 10
25.980985
 20
8.132678
 30
0.0
 11
27.480985
 21
8.132678
 31
0.0
  0
LINE
  5
3907
100
AcDbEntity
  8
0
100
AcDbLine
 10
25.980985
 20
6.257678
 30
0.0
 11
25.980985
 21
8.132678
 31
0.0
  0
LINE
  5
3908
100
AcDbEntity
  8
0
100
AcDbLine
 10
30.480985
 20
6.257678
 30
0.0
 11
30.480985
 21
8.132678
 31
0.0
  0
LINE
  5
3909
100
AcDbEntity
  8
0
100
AcDbLine
 10
28.980985
 20
8.132678
 30
0.0
 11
30.480985
 21
8.132678
 31
0.0
  0
LINE
  5
390A
100
AcDbEntity
  8
0
100
AcDbLine
 10
28.980985
 20
6.257678
 30
0.0
 11
28.980985
 21
8.132678
 31
0.0
  0
LINE
  5
390B
100
AcDbEntity
  8
0
100
AcDbLine
 10
33.480985
 20
6.257678
 30
0.0
 11
33.480985
 21
8.132678
 31
0.0
  0
LINE
  5
390C
100
AcDbEntity
  8
0
100
AcDbLine
 10
31.980985
 20
8.132678
 30
0.0
 11
33.480985
 21
8.132678
 31
0.0
  0
LINE
  5
390D
100
AcDbEntity
  8
0
100
AcDbLine
 10
31.980985
 20
6.257678
 30
0.0
 11
31.980985
 21
8.132678
 31
0.0
  0
LINE
  5
3926
100
AcDbEntity
  8
0
100
AcDbLine
 10
34.104286
 20
6.257678
 30
0.0
 11
34.104286
 21
10.757678
 31
0.0
  0
LINE
  5
3927
100
AcDbEntity
  8
0
100
AcDbLine
 10
46.718951
 20
6.257678
 30
0.0
 11
46.718951
 21
10.757678
 31
0.0
  0
LINE
  5
3928
100
AcDbEntity
  8
0
100
AcDbLine
 10
46.718951
 20
6.257678
 30
0.0
 11
47.843951
 21
6.257678
 31
0.0
  0
LINE
  5
392A
100
AcDbEntity
  8
0
100
AcDbLine
 10
46.718951
 20
10.757678
 30
0.0
 11
47.843951
 21
10.757678
 31
0.0
  0
ARC
  5
392E
100
AcDbEntity
  8
0
100
AcDbCircle
 10
43.592736
 20
5.664443
 30
0.0
 40
3.98314
100
AcDbArc
 50
8.5653
 51
38.292086
  0
ENDSEC
  0
SECTION
  2
OBJECTS
  0
DICTIONARY
  5
C
100
AcDbDictionary
  3
ACAD_GROUP
350
D
  3
ACAD_IMAGE_DICT
350
21
  3
ACAD_IMAGE_VARS
350
20
  3
ACAD_MLINESTYLE
350
1B
  3
ACDBVARIABLEDICTIONARY
350
34D4
  0
DICTIONARY
  5
D
102
{ACAD_REACTORS
330
C
102
}
100
AcDbDictionary
  0
DICTIONARY
  5
21
102
{ACAD_REACTORS
330
C
102
}
100
AcDbDictionary
  3
3304-1
350
22
  3
3304-1B
350
1C41
  3
3304-2
350
25
  3
3304-2B
350
1C44
  3
3304-3
350
28
  3
3304-3B
350
1C47
  0
RASTERVARIABLES
  5
20
102
{ACAD_REACTORS
330
C
102
}
100
AcDbRasterVariables
 90
        0
 70
     1
 71
     1
 72
     0
  0
DICTIONARY
  5
1B
102
{ACAD_REACTORS
330
C
102
}
100
AcDbDictionary
  3
STANDARD
350
1C
  0
DICTIONARY
  5
34D4
102
{ACAD_REACTORS
330
C
102
}
100
AcDbDictionary
  3
SORTENTS
350
34D5
  0
IMAGEDEF
  5
22
102
{ACAD_REACTORS
330
21
102
}
100
AcDbRasterImageDef
 90
        0
  1
U:\TPDWG\MichelQ\3304-1.tif
 10
2243.0
 20
3009.0
 11
0.070556
 21
0.070556
280
     1
281
     5
  0
IMAGEDEF
  5
1C41
102
{ACAD_REACTORS
330
21
102
}
100
AcDbRasterImageDef
 90
        0
  1
U:\TPDWG\MichelQ\3304-1b.TIF
 10
2202.0
 20
2931.0
 11
0.070556
 21
0.070556
280
     1
281
     5
  0
IMAGEDEF
  5
25
102
{ACAD_REACTORS
330
21
102
}
100
AcDbRasterImageDef
 90
        0
  1
U:\TPDWG\MichelQ\3304-2.tif
 10
2243.0
 20
3009.0
 11
0.070556
 21
0.070556
280
     1
281
     5
  0
IMAGEDEF
  5
1C44
102
{ACAD_REACTORS
330
21
102
}
100
AcDbRasterImageDef
 90
        0
  1
U:\TPDWG\MichelQ\3304-2b.TIF
 10
2202.0
 20
2931.0
 11
0.070556
 21
0.070556
280
     1
281
     5
  0
IMAGEDEF
  5
28
102
{ACAD_REACTORS
330
21
102
}
100
AcDbRasterImageDef
 90
        0
  1
U:\TPDWG\MichelQ\3304-3.tif
 10
2243.0
 20
3009.0
 11
0.070556
 21
0.070556
280
     1
281
     5
  0
IMAGEDEF
  5
1C47
102
{ACAD_REACTORS
330
21
102
}
100
AcDbRasterImageDef
 90
        0
  1
U:\TPDWG\MichelQ\3304-3b.TIF
 10
2202.0
 20
2931.0
 11
0.070556
 21
0.070556
280
     1
281
     5
  0
MLINESTYLE
  5
1C
102
{ACAD_REACTORS
330
1B
102
}
100
AcDbMlineStyle
  2
STANDARD
 70
     0
  3

 62
   256
 51
90.0
 52
90.0
 71
     2
 49
0.5
 62
   256
  6
BYLAYER
 49
-0.5
 62
   256
  6
BYLAYER
  0
DICTIONARYVAR
  5
34D5
102
{ACAD_REACTORS
330
34D4
102
}
100
DictionaryVariables
280
     0
  1
96
  0
ENDSEC
  0
EOF
