  0
SECTION
  2
HEADER
  9
$ACADVER
  1
AC1018
  9
$ACADMAINTVER
 70
     0
  9
$DWGCODEPAGE
  3
ANSI_1252
  9
$INSBASE
 10
0.0
 20
0.0
 30
0.0
  9
$EXTMIN
 10
9.128773373877372
 20
-2.249028757576127
 30
0.0
  9
$EXTMAX
 10
52.38771082211227
 20
9.757677660354104
 30
0.0
  9
$LIMMIN
 10
0.0
 20
0.0
  9
$LIMMAX
 10
420.0
 20
297.0
  9
$ORTHOMODE
 70
     0
  9
$REGENMODE
 70
     1
  9
$FILLMODE
 70
     1
  9
$QTEXTMODE
 70
     0
  9
$MIRRTEXT
 70
     1
  9
$LTSCALE
 40
0.04
  9
$ATTMODE
 70
     1
  9
$TEXTSIZE
 40
0.09375
  9
$TRACEWID
 40
1.0
  9
$TEXTSTYLE
  7
STYLE1
  9
$CLAYER
  8
0
  9
$CELTYPE
  6
BYLAYER
  9
$CECOLOR
 62
   256
  9
$CELTSCALE
 40
1.0
  9
$DISPSILH
 70
     0
  9
$DIMSCALE
 40
1.0
  9
$DIMASZ
 40
2.5
  9
$DIMEXO
 40
0.625
  9
$DIMDLI
 40
3.75
  9
$DIMRND
 40
0.0
  9
$DIMDLE
 40
0.0
  9
$DIMEXE
 40
1.25
  9
$DIMTP
 40
0.0
  9
$DIMTM
 40
0.0
  9
$DIMTXT
 40
2.5
  9
$DIMCEN
 40
2.5
  9
$DIMTSZ
 40
0.0
  9
$DIMTOL
 70
     0
  9
$DIMLIM
 70
     0
  9
$DIMTIH
 70
     0
  9
$DIMTOH
 70
     0
  9
$DIMSE1
 70
     0
  9
$DIMSE2
 70
     0
  9
$DIMTAD
 70
     1
  9
$DIMZIN
 70
     8
  9
$DIMBLK
  1

  9
$DIMASO
 70
     1
  9
$DIMSHO
 70
     1
  9
$DIMPOST
  1

  9
$DIMAPOST
  1

  9
$DIMALT
 70
     0
  9
$DIMALTD
 70
     4
  9
$DIMALTF
 40
0.0394
  9
$DIMLFAC
 40
1.0
  9
$DIMTOFL
 70
     1
  9
$DIMTVP
 40
0.0
  9
$DIMTIX
 70
     0
  9
$DIMSOXD
 70
     0
  9
$DIMSAH
 70
     0
  9
$DIMBLK1
  1

  9
$DIMBLK2
  1

  9
$DIMSTYLE
  2
STANDARD
  9
$DIMCLRD
 70
     0
  9
$DIMCLRE
 70
     0
  9
$DIMCLRT
 70
     0
  9
$DIMTFAC
 40
1.0
  9
$DIMGAP
 40
0.625
  9
$DIMJUST
 70
     0
  9
$DIMSD1
 70
     0
  9
$DIMSD2
 70
     0
  9
$DIMTOLJ
 70
     1
  9
$DIMTZIN
 70
     0
  9
$DIMALTZ
 70
     0
  9
$DIMALTTZ
 70
     0
  9
$DIMUPT
 70
     0
  9
$DIMDEC
 70
     4
  9
$DIMTDEC
 70
     4
  9
$DIMALTU
 70
     8
  9
$DIMALTTD
 70
     4
  9
$DIMTXSTY
  7
STANDARD
  9
$DIMAUNIT
 70
     0
  9
$DIMADEC
 70
     0
  9
$DIMALTRND
 40
0.0
  9
$DIMAZIN
 70
     0
  9
$DIMDSEP
 70
    46
  9
$DIMATFIT
 70
     3
  9
$DIMFRAC
 70
     0
  9
$DIMLDRBLK
  1

  9
$DIMLUNIT
 70
     6
  9
$DIMLWD
 70
    -2
  9
$DIMLWE
 70
    -2
  9
$DIMTMOVE
 70
     0
  9
$LUNITS
 70
     4
  9
$LUPREC
 70
     4
  9
$SKETCHINC
 40
1.0
  9
$FILLETRAD
 40
0.0
  9
$AUNITS
 70
     0
  9
$AUPREC
 70
     0
  9
$MENU
  1
.
  9
$ELEVATION
 40
0.0
  9
$PELEVATION
 40
0.0
  9
$THICKNESS
 40
0.0
  9
$LIMCHECK
 70
     0
  9
$CHAMFERA
 40
10.0
  9
$CHAMFERB
 40
10.0
  9
$CHAMFERC
 40
20.0
  9
$CHAMFERD
 40
0.0
  9
$SKPOLY
 70
     0
  9
$TDCREATE
 40
2451158.474098033
  9
$TDUCREATE
 40
2451158.640764699
  9
$TDUPDATE
 40
2453488.693762731
  9
$TDUUPDATE
 40
2453488.860429398
  9
$TDINDWG
 40
0.5782345718
  9
$TDUSRTIMER
 40
0.5782345718
  9
$USRTIMER
 70
     1
  9
$ANGBASE
 50
0.0
  9
$ANGDIR
 70
     0
  9
$PDMODE
 70
     3
  9
$PDSIZE
 40
0.25
  9
$PLINEWID
 40
0.0
  9
$SPLFRAME
 70
     0
  9
$SPLINETYPE
 70
     6
  9
$SPLINESEGS
 70
     8
  9
$HANDSEED
  5
3AB9
  9
$SURFTAB1
 70
     6
  9
$SURFTAB2
 70
     6
  9
$SURFTYPE
 70
     6
  9
$SURFU
 70
     6
  9
$SURFV
 70
     6
  9
$UCSBASE
  2

  9
$UCSNAME
  2

  9
$UCSORG
 10
0.0
 20
0.0
 30
0.0
  9
$UCSXDIR
 10
1.0
 20
0.0
 30
0.0
  9
$UCSYDIR
 10
0.0
 20
1.0
 30
0.0
  9
$UCSORTHOREF
  2

  9
$UCSORTHOVIEW
 70
     0
  9
$UCSORGTOP
 10
0.0
 20
0.0
 30
0.0
  9
$UCSORGBOTTOM
 10
0.0
 20
0.0
 30
0.0
  9
$UCSORGLEFT
 10
0.0
 20
0.0
 30
0.0
  9
$UCSORGRIGHT
 10
0.0
 20
0.0
 30
0.0
  9
$UCSORGFRONT
 10
0.0
 20
0.0
 30
0.0
  9
$UCSORGBACK
 10
0.0
 20
0.0
 30
0.0
  9
$PUCSBASE
  2

  9
$PUCSNAME
  2

  9
$PUCSORG
 10
0.0
 20
0.0
 30
0.0
  9
$PUCSXDIR
 10
1.0
 20
0.0
 30
0.0
  9
$PUCSYDIR
 10
0.0
 20
1.0
 30
0.0
  9
$PUCSORTHOREF
  2

  9
$PUCSORTHOVIEW
 70
     0
  9
$PUCSORGTOP
 10
0.0
 20
0.0
 30
0.0
  9
$PUCSORGBOTTOM
 10
0.0
 20
0.0
 30
0.0
  9
$PUCSORGLEFT
 10
0.0
 20
0.0
 30
0.0
  9
$PUCSORGRIGHT
 10
0.0
 20
0.0
 30
0.0
  9
$PUCSORGFRONT
 10
0.0
 20
0.0
 30
0.0
  9
$PUCSORGBACK
 10
0.0
 20
0.0
 30
0.0
  9
$USERI1
 70
     0
  9
$USERI2
 70
     0
  9
$USERI3
 70
     0
  9
$USERI4
 70
     0
  9
$USERI5
 70
     0
  9
$USERR1
 40
0.0
  9
$USERR2
 40
0.0
  9
$USERR3
 40
0.0
  9
$USERR4
 40
0.0
  9
$USERR5
 40
0.0
  9
$WORLDVIEW
 70
     1
  9
$SHADEDGE
 70
     3
  9
$SHADEDIF
 70
    70
  9
$TILEMODE
 70
     1
  9
$MAXACTVP
 70
    48
  9
$PINSBASE
 10
0.0
 20
0.0
 30
0.0
  9
$PLIMCHECK
 70
     0
  9
$PEXTMIN
 10
1.000000000000000E+20
 20
1.000000000000000E+20
 30
1.000000000000000E+20
  9
$PEXTMAX
 10
-1.000000000000000E+20
 20
-1.000000000000000E+20
 30
-1.000000000000000E+20
  9
$PLIMMIN
 10
0.0
 20
0.0
  9
$PLIMMAX
 10
420.0
 20
297.0
  9
$UNITMODE
 70
     0
  9
$VISRETAIN
 70
     1
  9
$PLINEGEN
 70
     0
  9
$PSLTSCALE
 70
     1
  9
$TREEDEPTH
 70
  3020
  9
$CMLSTYLE
  2
STANDARD
  9
$CMLJUST
 70
     0
  9
$CMLSCALE
 40
20.0
  9
$PROXYGRAPHICS
 70
     1
  9
$MEASUREMENT
 70
     1
  9
$CELWEIGHT
370
    -1
  9
$ENDCAPS
280
     0
  9
$JOINSTYLE
280
     0
  9
$LWDISPLAY
290
     0
  9
$INSUNITS
 70
     0
  9
$HYPERLINKBASE
  1

  9
$STYLESHEET
  1

  9
$XEDIT
290
     1
  9
$CEPSNTYPE
380
     0
  9
$PSTYLEMODE
290
     1
  9
$FINGERPRINTGUID
  2
{2F3B8357-DDF0-48B9-9737-8A457226FAF0}
  9
$VERSIONGUID
  2
{FB61625E-17D1-4342-AB6D-02846A3EE671}
  9
$EXTNAMES
290
     1
  9
$PSVPSCALE
 40
0.0
  9
$OLESTARTUP
290
     0
  9
$SORTENTS
280
    96
  9
$INDEXCTL
280
     0
  9
$HIDETEXT
280
     0
  9
$XCLIPFRAME
290
     0
  9
$HALOGAP
280
     0
  9
$OBSCOLOR
 70
   257
  9
$OBSLTYPE
280
     0
  9
$INTERSECTIONDISPLAY
280
     0
  9
$INTERSECTIONCOLOR
 70
   257
  9
$DIMASSOC
280
     1
  9
$PROJECTNAME
  1

  0
ENDSEC
  0
SECTION
  2
CLASSES
  0
CLASS
  1
RASTERVARIABLES
  2
AcDbRasterVariables
  3
ISM
 90
        0
 91
        1
280
     0
281
     0
  0
CLASS
  1
IMAGEDEF
  2
AcDbRasterImageDef
  3
ISM
 90
        0
 91
        6
280
     0
281
     0
  0
CLASS
  1
IMAGEDEF_REACTOR
  2
AcDbRasterImageDefReactor
  3
ISM
 90
        1
 91
        0
280
     0
281
     0
  0
CLASS
  1
IMAGE
  2
AcDbRasterImage
  3
ISM
 90
      127
 91
        0
280
     0
281
     1
  0
CLASS
  1
DICTIONARYVAR
  2
AcDbDictionaryVar
  3
ObjectDBX Classes
 90
        0
 91
        1
280
     0
281
     0
  0
CLASS
  1
ACDBDICTIONARYWDFLT
  2
AcDbDictionaryWithDefault
  3
ObjectDBX Classes
 90
        0
 91
        1
280
     0
281
     0
  0
ENDSEC
  0
SECTION
  2
TABLES
  0
TABLE
  2
VPORT
  5
8
330
0
100
AcDbSymbolTable
 70
     2
  0
VPORT
  5
3AB8
330
8
100
AcDbSymbolTableRecord
100
AcDbViewportTableRecord
  2
*Active
 70
     0
 10
0.0
 20
0.0
 11
1.0
 21
1.0
 12
32.47149035311294
 22
1.809174075034636
 13
0.0
 23
0.0
 14
10.0
 24
10.0
 15
10.0
 25
10.0
 16
0.0
 26
0.0
 36
1.0
 17
0.0
 27
0.0
 37
0.0
 40
26.24339839623426
 41
1.977142857142857
 42
50.0
 43
0.0
 44
0.0
 50
0.0
 51
0.0
 71
     0
 72
   100
 73
     1
 74
     1
 75
     0
 76
     0
 77
     0
 78
     0
281
     0
 65
     1
110
0.0
120
0.0
130
0.0
111
1.0
121
0.0
131
0.0
112
0.0
122
1.0
132
0.0
 79
     0
146
0.0
  0
ENDTAB
  0
TABLE
  2
LTYPE
  5
5
330
0
100
AcDbSymbolTable
 70
     1
  0
LTYPE
  5
12
330
5
100
AcDbSymbolTableRecord
100
AcDbLinetypeTableRecord
  2
BYBLOCK
 70
     0
  3

 72
    65
 73
     0
 40
0.0
  0
LTYPE
  5
13
330
5
100
AcDbSymbolTableRecord
100
AcDbLinetypeTableRecord
  2
BYLAYER
 70
     0
  3

 72
    65
 73
     0
 40
0.0
  0
LTYPE
  5
14
330
5
100
AcDbSymbolTableRecord
100
AcDbLinetypeTableRecord
  2
CONTINUOUS
 70
     0
  3
Solid line
 72
    65
 73
     0
 40
0.0
  0
ENDTAB
  0
TABLE
  2
LAYER
  5
2
330
0
100
AcDbSymbolTable
 70
     3
  0
LAYER
  5
E
330
2
100
AcDbSymbolTableRecord
100
AcDbLayerTableRecord
  2
0
 70
     0
 62
     7
  6
CONTINUOUS
370
    -3
390
39AA
  0
LAYER
  5
39B4
330
2
100
AcDbSymbolTableRecord
100
AcDbLayerTableRecord
  2
Defpoints
 70
     0
 62
     7
  6
CONTINUOUS
290
     0
370
    -3
390
39AA
  0
LAYER
  5
3AB2
330
2
100
AcDbSymbolTableRecord
100
AcDbLayerTableRecord
  2
TITRES
 70
     0
 62
     6
  6
CONTINUOUS
370
    -3
390
39AA
  0
ENDTAB
  0
TABLE
  2
STYLE
  5
3
330
0
100
AcDbSymbolTable
 70
     2
  0
STYLE
  5
F
330
3
100
AcDbSymbolTableRecord
100
AcDbTextStyleTableRecord
  2
STANDARD
 70
     0
 40
0.0
 41
1.0
 50
0.0
 71
     0
 42
2.5
  3
txt
  4

  0
STYLE
  5
36AA
330
3
100
AcDbSymbolTableRecord
100
AcDbTextStyleTableRecord
  2
STYLE1
 70
     0
 40
0.09375
 41
1.0
 50
0.0
 71
     0
 42
0.09375
  3
simplex.shx
  4

  0
ENDTAB
  0
TABLE
  2
VIEW
  5
6
330
0
100
AcDbSymbolTable
 70
     0
  0
ENDTAB
  0
TABLE
  2
UCS
  5
7
330
0
100
AcDbSymbolTable
 70
     0
  0
ENDTAB
  0
TABLE
  2
APPID
  5
9
330
0
100
AcDbSymbolTable
 70
     1
  0
APPID
  5
10
330
9
100
AcDbSymbolTableRecord
100
AcDbRegAppTableRecord
  2
ACAD
 70
     0
  0
ENDTAB
  0
TABLE
  2
DIMSTYLE
  5
A
330
0
100
AcDbSymbolTable
 70
     1
100
AcDbDimStyleTable
 71
     1
340
1D
  0
DIMSTYLE
105
1D
330
A
100
AcDbSymbolTableRecord
100
AcDbDimStyleTableRecord
  2
STANDARD
 70
     0
340
F
  0
ENDTAB
  0
TABLE
  2
BLOCK_RECORD
  5
1
330
0
100
AcDbSymbolTable
 70
     1
  0
BLOCK_RECORD
  5
18
330
1
100
AcDbSymbolTableRecord
100
AcDbBlockTableRecord
  2
*MODEL_SPACE
340
39AF
  0
BLOCK_RECORD
  5
15
330
1
100
AcDbSymbolTableRecord
100
AcDbBlockTableRecord
  2
*PAPER_SPACE
340
39B0
  0
BLOCK_RECORD
  5
3980
330
1
100
AcDbSymbolTableRecord
100
AcDbBlockTableRecord
  2
6006_E
340
0
  0
ENDTAB
  0
ENDSEC
  0
SECTION
  2
BLOCKS
  0
BLOCK
  5
19
330
18
100
AcDbEntity
  8
0
100
AcDbBlockBegin
  2
*MODEL_SPACE
 70
     0
 10
0.0
 20
0.0
 30
0.0
  3
*MODEL_SPACE
  1

  0
ENDBLK
  5
1A
330
18
100
AcDbEntity
  8
0
100
AcDbBlockEnd
  0
BLOCK
  5
16
330
15
100
AcDbEntity
 67
     1
  8
0
100
AcDbBlockBegin
  2
*PAPER_SPACE
 70
     0
 10
0.0
 20
0.0
 30
0.0
  3
*PAPER_SPACE
  1

  0
ENDBLK
  5
17
330
15
100
AcDbEntity
 67
     1
  8
0
100
AcDbBlockEnd
  0
BLOCK
  5
3981
330
3980
100
AcDbEntity
  8
0
100
AcDbBlockBegin
  2
6006_E
 70
     0
 10
0.0
 20
0.0
 30
0.0
  3
6006_E
  1

  0
LINE
  5
3982
330
3980
100
AcDbEntity
  8
0
100
AcDbLine
 10
0.0
 20
0.0
 30
0.0
 11
25.52265514941318
 21
0.0
 31
0.0
  0
LINE
  5
3983
330
3980
100
AcDbEntity
  8
0
100
AcDbLine
 10
2.937500000000001
 20
-1.75
 30
0.0
 11
4.437500000000001
 21
-1.75
 31
0.0
  0
LINE
  5
3984
330
3980
100
AcDbEntity
  8
0
100
AcDbLine
 10
2.937500000000003
 20
-3.499999999999996
 30
0.0
 11
2.9375
 21
0.0000000000000018
 31
0.0
  0
LINE
  5
3985
330
3980
100
AcDbEntity
  8
0
100
AcDbLine
 10
0.7500000000000036
 20
-3.499999999999999
 30
0.0
 11
0.75
 21
0.0
 31
0.0
  0
LINE
  5
3986
330
3980
100
AcDbEntity
  8
0
100
AcDbLine
 10
0.0
 20
-1.75
 30
0.0
 11
0.0
 21
0.0
 31
0.0
  0
LINE
  5
3987
330
3980
100
AcDbEntity
  8
0
100
AcDbLine
 10
0.7500000000000036
 20
-3.499999999999999
 30
0.0
 11
2.937500000000003
 21
-3.499999999999999
 31
0.0
  0
LINE
  5
3988
330
3980
100
AcDbEntity
  8
0
100
AcDbLine
 10
0.0
 20
-1.75
 30
0.0
 11
0.7500000000000036
 21
-1.75
 31
0.0
  0
LINE
  5
3989
330
3980
100
AcDbEntity
  8
0
100
AcDbLine
 10
25.52265514941318
 20
-1.749999999999978
 30
0.0
 11
25.52265514941318
 21
0.0
 31
0.0
  0
LINE
  5
398A
330
3980
100
AcDbEntity
  8
0
100
AcDbLine
 10
25.0625
 20
-3.499999999999999
 30
0.0
 11
25.0625
 21
0.0000000000000284
 31
0.0
  0
LINE
  5
398B
330
3980
100
AcDbEntity
  8
0
100
AcDbLine
 10
22.875
 20
-3.499999999999972
 30
0.0
 11
22.875
 21
0.0000000000000249
 31
0.0
  0
LINE
  5
398C
330
3980
100
AcDbEntity
  8
0
100
AcDbLine
 10
19.1875
 20
-3.499999999999976
 30
0.0
 11
19.1875
 21
0.0000000000000213
 31
0.0
  0
LINE
  5
398D
330
3980
100
AcDbEntity
  8
0
100
AcDbLine
 10
21.375
 20
-3.499999999999974
 30
0.0
 11
21.375
 21
0.0000000000000231
 31
0.0
  0
LINE
  5
398E
330
3980
100
AcDbEntity
  8
0
100
AcDbLine
 10
15.5
 20
-3.499999999999981
 30
0.0
 11
15.5
 21
0.0000000000000178
 31
0.0
  0
LINE
  5
398F
330
3980
100
AcDbEntity
  8
0
100
AcDbLine
 10
17.6875
 20
-3.499999999999978
 30
0.0
 11
17.6875
 21
0.0000000000000178
 31
0.0
  0
LINE
  5
3990
330
3980
100
AcDbEntity
  8
0
100
AcDbLine
 10
11.8125
 20
-3.499999999999985
 30
0.0
 11
11.8125
 21
0.0000000000000124
 31
0.0
  0
LINE
  5
3991
330
3980
100
AcDbEntity
  8
0
100
AcDbLine
 10
14.0
 20
-3.499999999999983
 30
0.0
 11
14.0
 21
0.0000000000000142
 31
0.0
  0
LINE
  5
3992
330
3980
100
AcDbEntity
  8
0
100
AcDbLine
 10
8.125000000000001
 20
-3.49999999999999
 30
0.0
 11
8.125000000000001
 21
0.0000000000000071
 31
0.0
  0
LINE
  5
3993
330
3980
100
AcDbEntity
  8
0
100
AcDbLine
 10
10.3125
 20
-3.499999999999987
 30
0.0
 11
10.3125
 21
0.0000000000000107
 31
0.0
  0
LINE
  5
3994
330
3980
100
AcDbEntity
  8
0
100
AcDbLine
 10
6.625000000000003
 20
-3.499999999999992
 30
0.0
 11
6.625
 21
0.0000000000000053
 31
0.0
  0
LINE
  5
3995
330
3980
100
AcDbEntity
  8
0
100
AcDbLine
 10
4.437500000000003
 20
-3.499999999999994
 30
0.0
 11
4.4375
 21
0.0000000000000036
 31
0.0
  0
LINE
  5
3996
330
3980
100
AcDbEntity
  8
0
100
AcDbLine
 10
19.1875
 20
-3.499999999999999
 30
0.0
 11
21.37500000000001
 21
-3.5
 31
0.0
  0
LINE
  5
3997
330
3980
100
AcDbEntity
  8
0
100
AcDbLine
 10
11.8125
 20
-3.499999999999999
 30
0.0
 11
14.00000000000001
 21
-3.5
 31
0.0
  0
LINE
  5
3998
330
3980
100
AcDbEntity
  8
0
100
AcDbLine
 10
6.625000000000001
 20
-1.749999999999996
 30
0.0
 11
8.125000000000001
 21
-1.749999999999996
 31
0.0
  0
LINE
  5
3999
330
3980
100
AcDbEntity
  8
0
100
AcDbLine
 10
4.437500000000001
 20
-3.499999999999999
 30
0.0
 11
6.625000000000005
 21
-3.499999999999999
 31
0.0
  0
LINE
  5
399A
330
3980
100
AcDbEntity
  8
0
100
AcDbLine
 10
8.125000000000001
 20
-3.499999999999999
 30
0.0
 11
10.3125
 21
-3.499999999999999
 31
0.0
  0
LINE
  5
399B
330
3980
100
AcDbEntity
  8
0
100
AcDbLine
 10
10.3125
 20
-1.749999999999991
 30
0.0
 11
11.8125
 21
-1.749999999999991
 31
0.0
  0
LINE
  5
399C
330
3980
100
AcDbEntity
  8
0
100
AcDbLine
 10
15.5
 20
-3.499999999999999
 30
0.0
 11
17.6875
 21
-3.499999999999998
 31
0.0
  0
LINE
  5
399D
330
3980
100
AcDbEntity
  8
0
100
AcDbLine
 10
14.0
 20
-1.749999999999985
 30
0.0
 11
15.5
 21
-1.749999999999985
 31
0.0
  0
LINE
  5
399E
330
3980
100
AcDbEntity
  8
0
100
AcDbLine
 10
17.6875
 20
-1.749999999999982
 30
0.0
 11
19.1875
 21
-1.749999999999982
 31
0.0
  0
LINE
  5
399F
330
3980
100
AcDbEntity
  8
0
100
AcDbLine
 10
22.875
 20
-3.5
 30
0.0
 11
25.0625
 21
-3.499999999999999
 31
0.0
  0
LINE
  5
39A0
330
3980
100
AcDbEntity
  8
0
100
AcDbLine
 10
21.375
 20
-1.749999999999978
 30
0.0
 11
22.875
 21
-1.749999999999978
 31
0.0
  0
LINE
  5
39A1
330
3980
100
AcDbEntity
  8
0
100
AcDbLine
 10
25.0625
 20
-1.749999999999978
 30
0.0
 11
25.52265514941318
 21
-1.749999999999978
 31
0.0
  0
ENDBLK
  5
39A2
330
3980
100
AcDbEntity
  8
0
100
AcDbBlockEnd
  0
ENDSEC
  0
SECTION
  2
ENTITIES
  0
LINE
  5
38EF
330
18
100
AcDbEntity
  8
0
100
AcDbLine
 10
9.8787735242706
 20
6.257677660354077
 30
0.0
 11
12.0662735242706
 21
6.257677660354077
 31
0.0
  0
LINE
  5
38F2
330
18
100
AcDbEntity
  8
0
100
AcDbLine
 10
9.128773524270597
 20
8.007677660354076
 30
0.0
 11
9.128773524270597
 21
9.757677660354076
 31
0.0
  0
LINE
  5
395C
330
18
100
AcDbEntity
  8
0
100
AcDbLine
 10
9.128773524270597
 20
9.757677660354076
 30
0.0
 11
34.65142867368378
 21
9.757677660354076
 31
0.0
  0
LINE
  5
395D
330
18
100
AcDbEntity
  8
0
100
AcDbLine
 10
34.65142867368378
 20
8.007677660354097
 30
0.0
 11
34.65142867368378
 21
9.757677660354076
 31
0.0
  0
LINE
  5
395E
330
18
100
AcDbEntity
  8
0
100
AcDbLine
 10
9.128773524270597
 20
8.007677660354076
 30
0.0
 11
9.8787735242706
 21
8.007677660354076
 31
0.0
  0
LINE
  5
395F
330
18
100
AcDbEntity
  8
0
100
AcDbLine
 10
9.8787735242706
 20
6.257677660354077
 30
0.0
 11
9.878773524270597
 21
9.757677660354076
 31
0.0
  0
LINE
  5
3960
330
18
100
AcDbEntity
  8
0
100
AcDbLine
 10
12.0662735242706
 20
6.25767766035408
 30
0.0
 11
12.0662735242706
 21
9.757677660354078
 31
0.0
  0
LINE
  5
3961
330
18
100
AcDbEntity
  8
0
100
AcDbLine
 10
12.0662735242706
 20
8.007677660354076
 30
0.0
 11
13.5662735242706
 21
8.007677660354076
 31
0.0
  0
LINE
  5
3962
330
18
100
AcDbEntity
  8
0
100
AcDbLine
 10
13.5662735242706
 20
6.257677660354081
 30
0.0
 11
13.5662735242706
 21
9.75767766035408
 31
0.0
  0
LINE
  5
3963
330
18
100
AcDbEntity
  8
0
100
AcDbLine
 10
15.7537735242706
 20
6.257677660354084
 30
0.0
 11
15.7537735242706
 21
9.757677660354081
 31
0.0
  0
LINE
  5
3965
330
18
100
AcDbEntity
  8
0
100
AcDbLine
 10
15.7537735242706
 20
8.00767766035408
 30
0.0
 11
17.2537735242706
 21
8.00767766035408
 31
0.0
  0
LINE
  5
3966
330
18
100
AcDbEntity
  8
0
100
AcDbLine
 10
19.4412735242706
 20
6.257677660354088
 30
0.0
 11
19.4412735242706
 21
9.757677660354087
 31
0.0
  0
LINE
  5
3967
330
18
100
AcDbEntity
  8
0
100
AcDbLine
 10
17.2537735242706
 20
6.257677660354086
 30
0.0
 11
17.2537735242706
 21
9.757677660354083
 31
0.0
  0
LINE
  5
3968
330
18
100
AcDbEntity
  8
0
100
AcDbLine
 10
19.4412735242706
 20
8.007677660354085
 30
0.0
 11
20.9412735242706
 21
8.007677660354085
 31
0.0
  0
LINE
  5
3969
330
18
100
AcDbEntity
  8
0
100
AcDbLine
 10
23.1287735242706
 20
6.257677660354093
 30
0.0
 11
23.1287735242706
 21
9.75767766035409
 31
0.0
  0
LINE
  5
396A
330
18
100
AcDbEntity
  8
0
100
AcDbLine
 10
20.9412735242706
 20
6.25767766035409
 30
0.0
 11
20.9412735242706
 21
9.757677660354088
 31
0.0
  0
LINE
  5
396B
330
18
100
AcDbEntity
  8
0
100
AcDbLine
 10
23.1287735242706
 20
8.00767766035409
 30
0.0
 11
24.6287735242706
 21
8.00767766035409
 31
0.0
  0
LINE
  5
396C
330
18
100
AcDbEntity
  8
0
100
AcDbLine
 10
26.8162735242706
 20
6.257677660354097
 30
0.0
 11
26.8162735242706
 21
9.757677660354094
 31
0.0
  0
LINE
  5
396D
330
18
100
AcDbEntity
  8
0
100
AcDbLine
 10
24.6287735242706
 20
6.257677660354095
 30
0.0
 11
24.6287735242706
 21
9.757677660354094
 31
0.0
  0
LINE
  5
396E
330
18
100
AcDbEntity
  8
0
100
AcDbLine
 10
26.8162735242706
 20
8.007677660354094
 30
0.0
 11
28.3162735242706
 21
8.007677660354094
 31
0.0
  0
LINE
  5
396F
330
18
100
AcDbEntity
  8
0
100
AcDbLine
 10
30.5037735242706
 20
6.257677660354102
 30
0.0
 11
30.5037735242706
 21
9.757677660354099
 31
0.0
  0
LINE
  5
3970
330
18
100
AcDbEntity
  8
0
100
AcDbLine
 10
28.3162735242706
 20
6.257677660354099
 30
0.0
 11
28.3162735242706
 21
9.757677660354097
 31
0.0
  0
LINE
  5
3974
330
18
100
AcDbEntity
  8
0
100
AcDbLine
 10
32.0037735242706
 20
6.257677660354103
 30
0.0
 11
32.0037735242706
 21
9.757677660354101
 31
0.0
  0
LINE
  5
3975
330
18
100
AcDbEntity
  8
0
100
AcDbLine
 10
34.1912735242706
 20
6.257677660354077
 30
0.0
 11
34.1912735242706
 21
9.757677660354104
 31
0.0
  0
LINE
  5
3976
330
18
100
AcDbEntity
  8
0
100
AcDbLine
 10
30.5037735242706
 20
8.007677660354097
 30
0.0
 11
32.0037735242706
 21
8.007677660354097
 31
0.0
  0
LINE
  5
3977
330
18
100
AcDbEntity
  8
0
100
AcDbLine
 10
34.1912735242706
 20
8.007677660354097
 30
0.0
 11
34.65142867368378
 21
8.007677660354097
 31
0.0
  0
LINE
  5
3979
330
18
100
AcDbEntity
  8
0
100
AcDbLine
 10
13.5662735242706
 20
6.257677660354077
 30
0.0
 11
15.7537735242706
 21
6.257677660354077
 31
0.0
  0
LINE
  5
397A
330
18
100
AcDbEntity
  8
0
100
AcDbLine
 10
17.2537735242706
 20
6.257677660354077
 30
0.0
 11
19.4412735242706
 21
6.257677660354077
 31
0.0
  0
LINE
  5
397B
330
18
100
AcDbEntity
  8
0
100
AcDbLine
 10
20.9412735242706
 20
6.257677660354077
 30
0.0
 11
23.12877352427061
 21
6.257677660354076
 31
0.0
  0
LINE
  5
397C
330
18
100
AcDbEntity
  8
0
100
AcDbLine
 10
24.6287735242706
 20
6.257677660354077
 30
0.0
 11
26.8162735242706
 21
6.257677660354078
 31
0.0
  0
LINE
  5
397D
330
18
100
AcDbEntity
  8
0
100
AcDbLine
 10
28.3162735242706
 20
6.257677660354077
 30
0.0
 11
30.5037735242706
 21
6.257677660354076
 31
0.0
  0
LINE
  5
397E
330
18
100
AcDbEntity
  8
0
100
AcDbLine
 10
32.0037735242706
 20
6.257677660354076
 30
0.0
 11
34.1912735242706
 21
6.257677660354077
 31
0.0
  0
LINE
  5
39E8
330
18
100
AcDbEntity
  8
0
100
AcDbLine
 10
12.06627337387737
 20
-1.749028757576127
 30
0.0
 11
13.56627337387737
 21
-1.749028757576127
 31
0.0
  0
LINE
  5
39E9
330
18
100
AcDbEntity
  8
0
100
AcDbLine
 10
9.128773373877372
 20
-2.249028757576127
 30
0.0
 11
34.65142852329055
 21
-2.249028757576127
 31
0.0
  0
LINE
  5
39EA
330
18
100
AcDbEntity
  8
0
100
AcDbLine
 10
12.06627337387738
 20
-2.249028757576123
 30
0.0
 11
12.06627337387737
 21
-1.249028757576125
 31
0.0
  0
LINE
  5
39EB
330
18
100
AcDbEntity
  8
0
100
AcDbLine
 10
9.878773373877377
 20
-2.249028757576126
 30
0.0
 11
9.878773373877374
 21
-1.249028757576127
 31
0.0
  0
LINE
  5
39EC
330
18
100
AcDbEntity
  8
0
100
AcDbLine
 10
9.128773373877374
 20
-2.249028757576127
 30
0.0
 11
9.128773373877374
 21
-1.749028757576127
 31
0.0
  0
LINE
  5
39ED
330
18
100
AcDbEntity
  8
0
100
AcDbLine
 10
9.128773373877374
 20
-1.749028757576127
 30
0.0
 11
9.878773373877377
 21
-1.749028757576127
 31
0.0
  0
LINE
  5
39EE
330
18
100
AcDbEntity
  8
0
100
AcDbLine
 10
9.878773373877377
 20
-2.249028757576126
 30
0.0
 11
12.06627337387738
 21
-2.249028757576126
 31
0.0
  0
LINE
  5
39EF
330
18
100
AcDbEntity
  8
0
100
AcDbLine
 10
34.19127337387738
 20
-2.249028757576126
 30
0.0
 11
34.19127337387738
 21
-1.249028757576098
 31
0.0
  0
LINE
  5
39F0
330
18
100
AcDbEntity
  8
0
100
AcDbLine
 10
32.00377337387738
 20
-2.249028757576099
 30
0.0
 11
32.00377337387738
 21
-1.249028757576102
 31
0.0
  0
LINE
  5
39F1
330
18
100
AcDbEntity
  8
0
100
AcDbLine
 10
28.31627337387738
 20
-2.249028757576104
 30
0.0
 11
28.31627337387737
 21
-1.249028757576105
 31
0.0
  0
LINE
  5
39F2
330
18
100
AcDbEntity
  8
0
100
AcDbLine
 10
30.50377337387738
 20
-2.249028757576101
 30
0.0
 11
30.50377337387737
 21
-1.249028757576104
 31
0.0
  0
LINE
  5
39F3
330
18
100
AcDbEntity
  8
0
100
AcDbLine
 10
24.62877337387738
 20
-2.249028757576108
 30
0.0
 11
24.62877337387737
 21
-1.249028757576109
 31
0.0
  0
LINE
  5
39F4
330
18
100
AcDbEntity
  8
0
100
AcDbLine
 10
26.81627337387738
 20
-2.249028757576105
 30
0.0
 11
26.81627337387737
 21
-1.249028757576109
 31
0.0
  0
LINE
  5
39F5
330
18
100
AcDbEntity
  8
0
100
AcDbLine
 10
20.94127337387738
 20
-2.249028757576112
 30
0.0
 11
20.94127337387737
 21
-1.249028757576114
 31
0.0
  0
LINE
  5
39F6
330
18
100
AcDbEntity
  8
0
100
AcDbLine
 10
23.12877337387738
 20
-2.24902875757611
 30
0.0
 11
23.12877337387737
 21
-1.249028757576112
 31
0.0
  0
LINE
  5
39F7
330
18
100
AcDbEntity
  8
0
100
AcDbLine
 10
17.25377337387737
 20
-2.249028757576117
 30
0.0
 11
17.25377337387737
 21
-1.24902875757612
 31
0.0
  0
LINE
  5
39F8
330
18
100
AcDbEntity
  8
0
100
AcDbLine
 10
19.44127337387737
 20
-2.249028757576114
 30
0.0
 11
19.44127337387737
 21
-1.249028757576116
 31
0.0
  0
LINE
  5
39F9
330
18
100
AcDbEntity
  8
0
100
AcDbLine
 10
15.75377337387737
 20
-2.249028757576119
 30
0.0
 11
15.75377337387737
 21
-1.249028757576121
 31
0.0
  0
LINE
  5
39FA
330
18
100
AcDbEntity
  8
0
100
AcDbLine
 10
13.56627337387737
 20
-2.249028757576121
 30
0.0
 11
13.56627337387737
 21
-1.249028757576123
 31
0.0
  0
LINE
  5
39FB
330
18
100
AcDbEntity
  8
0
100
AcDbLine
 10
34.65142852329055
 20
-2.249028757576127
 30
0.0
 11
34.65142852329055
 21
-1.749028757576148
 31
0.0
  0
LINE
  5
39FC
330
18
100
AcDbEntity
  8
0
100
AcDbLine
 10
28.31627337387737
 20
-2.249028757576126
 30
0.0
 11
30.50377337387738
 21
-2.249028757576127
 31
0.0
  0
LINE
  5
39FD
330
18
100
AcDbEntity
  8
0
100
AcDbLine
 10
20.94127337387737
 20
-2.249028757576126
 30
0.0
 11
23.12877337387738
 21
-2.249028757576127
 31
0.0
  0
LINE
  5
39FE
330
18
100
AcDbEntity
  8
0
100
AcDbLine
 10
15.75377337387737
 20
-1.749028757576123
 30
0.0
 11
17.25377337387737
 21
-1.749028757576123
 31
0.0
  0
LINE
  5
39FF
330
18
100
AcDbEntity
  8
0
100
AcDbLine
 10
13.56627337387737
 20
-2.249028757576126
 30
0.0
 11
15.75377337387738
 21
-2.249028757576126
 31
0.0
  0
LINE
  5
3A00
330
18
100
AcDbEntity
  8
0
100
AcDbLine
 10
17.25377337387737
 20
-2.249028757576126
 30
0.0
 11
19.44127337387737
 21
-2.249028757576126
 31
0.0
  0
LINE
  5
3A01
330
18
100
AcDbEntity
  8
0
100
AcDbLine
 10
19.44127337387737
 20
-1.749028757576118
 30
0.0
 11
20.94127337387738
 21
-1.749028757576118
 31
0.0
  0
LINE
  5
3A02
330
18
100
AcDbEntity
  8
0
100
AcDbLine
 10
24.62877337387738
 20
-2.249028757576126
 30
0.0
 11
26.81627337387738
 21
-2.249028757576125
 31
0.0
  0
LINE
  5
3A03
330
18
100
AcDbEntity
  8
0
100
AcDbLine
 10
23.12877337387738
 20
-1.749028757576112
 30
0.0
 11
24.62877337387738
 21
-1.749028757576112
 31
0.0
  0
LINE
  5
3A04
330
18
100
AcDbEntity
  8
0
100
AcDbLine
 10
26.81627337387738
 20
-1.749028757576109
 30
0.0
 11
28.31627337387738
 21
-1.749028757576109
 31
0.0
  0
LINE
  5
3A05
330
18
100
AcDbEntity
  8
0
100
AcDbLine
 10
32.00377337387738
 20
-2.249028757576127
 30
0.0
 11
34.19127337387738
 21
-2.249028757576126
 31
0.0
  0
LINE
  5
3A06
330
18
100
AcDbEntity
  8
0
100
AcDbLine
 10
30.50377337387738
 20
-1.749028757576105
 30
0.0
 11
32.00377337387738
 21
-1.749028757576105
 31
0.0
  0
LINE
  5
3A07
330
18
100
AcDbEntity
  8
0
100
AcDbLine
 10
34.19127337387738
 20
-1.749028757576105
 30
0.0
 11
34.65142852329055
 21
-1.749028757576105
 31
0.0
  0
LINE
  5
3A41
330
18
100
AcDbEntity
  8
0
100
AcDbLine
 10
9.878773529069089
 20
-1.249028719832536
 30
0.0
 11
12.06627352906909
 21
-1.249028719832536
 31
0.0
  0
LINE
  5
3A42
330
18
100
AcDbEntity
  8
0
100
AcDbLine
 10
13.56627352906909
 20
-1.249028719832536
 30
0.0
 11
15.75377352906909
 21
-1.249028719832536
 31
0.0
  0
LINE
  5
3A43
330
18
100
AcDbEntity
  8
0
100
AcDbLine
 10
17.25377352906908
 20
-1.249028719832536
 30
0.0
 11
19.44127352906908
 21
-1.249028719832536
 31
0.0
  0
LINE
  5
3A44
330
18
100
AcDbEntity
  8
0
100
AcDbLine
 10
20.94127352906909
 20
-1.249028719832536
 30
0.0
 11
23.12877352906909
 21
-1.249028719832537
 31
0.0
  0
LINE
  5
3A45
330
18
100
AcDbEntity
  8
0
100
AcDbLine
 10
24.62877352906909
 20
-1.249028719832536
 30
0.0
 11
26.81627352906909
 21
-1.249028719832535
 31
0.0
  0
LINE
  5
3A46
330
18
100
AcDbEntity
  8
0
100
AcDbLine
 10
28.31627352906909
 20
-1.249028719832536
 30
0.0
 11
30.5037735290691
 21
-1.249028719832537
 31
0.0
  0
LINE
  5
3A47
330
18
100
AcDbEntity
  8
0
100
AcDbLine
 10
32.00377352906909
 20
-1.249028719832537
 30
0.0
 11
34.19127352906909
 21
-1.249028719832536
 31
0.0
  0
LINE
  5
3A75
330
18
100
AcDbEntity
  8
0
100
AcDbLine
 10
12.06627345374345
 20
2.548940087803913
 30
0.0
 11
13.56627345374345
 21
2.548940087803913
 31
0.0
  0
LINE
  5
3A76
330
18
100
AcDbEntity
  8
0
100
AcDbLine
 10
9.128773453743448
 20
3.048940087803913
 30
0.0
 11
34.65142860315662
 21
3.048940087803913
 31
0.0
  0
LINE
  5
3A77
330
18
100
AcDbEntity
  8
0
100
AcDbLine
 10
9.878773608935167
 20
3.048940125547503
 30
0.0
 11
12.06627360893517
 21
3.048940125547503
 31
0.0
  0
LINE
  5
3A78
330
18
100
AcDbEntity
  8
0
100
AcDbLine
 10
9.128773453743452
 20
2.548940087803913
 30
0.0
 11
9.878773453743455
 21
2.548940087803913
 31
0.0
  0
LINE
  5
3A79
330
18
100
AcDbEntity
  8
0
100
AcDbLine
 10
9.878773453743455
 20
2.048940087803914
 30
0.0
 11
12.06627345374345
 21
2.048940087803914
 31
0.0
  0
LINE
  5
3A7A
330
18
100
AcDbEntity
  8
0
100
AcDbLine
 10
9.128773453743452
 20
2.548940087803913
 30
0.0
 11
9.128773453743452
 21
3.048940087803913
 31
0.0
  0
LINE
  5
3A7B
330
18
100
AcDbEntity
  8
0
100
AcDbLine
 10
12.06627345374345
 20
2.048940087803917
 30
0.0
 11
12.06627345374345
 21
2.548940087803913
 31
0.0
  0
LINE
  5
3A7C
330
18
100
AcDbEntity
  8
0
100
AcDbLine
 10
9.878773453743455
 20
2.048940087803914
 30
0.0
 11
9.878773453743454
 21
2.548940087803913
 31
0.0
  0
LINE
  5
3A7D
330
18
100
AcDbEntity
  8
0
100
AcDbLine
 10
28.31627345374345
 20
2.048940087803914
 30
0.0
 11
30.50377345374346
 21
2.048940087803913
 31
0.0
  0
LINE
  5
3A7E
330
18
100
AcDbEntity
  8
0
100
AcDbLine
 10
28.31627360893516
 20
3.048940125547503
 30
0.0
 11
30.50377360893517
 21
3.048940125547503
 31
0.0
  0
LINE
  5
3A7F
330
18
100
AcDbEntity
  8
0
100
AcDbLine
 10
20.94127345374345
 20
2.048940087803914
 30
0.0
 11
23.12877345374346
 21
2.048940087803913
 31
0.0
  0
LINE
  5
3A80
330
18
100
AcDbEntity
  8
0
100
AcDbLine
 10
20.94127360893516
 20
3.048940125547503
 30
0.0
 11
23.12877360893517
 21
3.048940125547503
 31
0.0
  0
LINE
  5
3A81
330
18
100
AcDbEntity
  8
0
100
AcDbLine
 10
15.75377345374345
 20
2.548940087803917
 30
0.0
 11
17.25377345374345
 21
2.548940087803917
 31
0.0
  0
LINE
  5
3A82
330
18
100
AcDbEntity
  8
0
100
AcDbLine
 10
13.56627360893516
 20
3.048940125547503
 30
0.0
 11
15.75377360893517
 21
3.048940125547503
 31
0.0
  0
LINE
  5
3A83
330
18
100
AcDbEntity
  8
0
100
AcDbLine
 10
13.56627345374345
 20
2.048940087803914
 30
0.0
 11
15.75377345374346
 21
2.048940087803914
 31
0.0
  0
LINE
  5
3A84
330
18
100
AcDbEntity
  8
0
100
AcDbLine
 10
15.75377345374345
 20
2.048940087803921
 30
0.0
 11
15.75377345374345
 21
2.548940087803913
 31
0.0
  0
LINE
  5
3A85
330
18
100
AcDbEntity
  8
0
100
AcDbLine
 10
13.56627345374345
 20
2.048940087803918
 30
0.0
 11
13.56627345374345
 21
2.548940087803913
 31
0.0
  0
LINE
  5
3A86
330
18
100
AcDbEntity
  8
0
100
AcDbLine
 10
17.25377360893516
 20
3.048940125547503
 30
0.0
 11
19.44127360893516
 21
3.048940125547503
 31
0.0
  0
LINE
  5
3A87
330
18
100
AcDbEntity
  8
0
100
AcDbLine
 10
19.44127345374345
 20
2.548940087803922
 30
0.0
 11
20.94127345374346
 21
2.548940087803922
 31
0.0
  0
LINE
  5
3A88
330
18
100
AcDbEntity
  8
0
100
AcDbLine
 10
17.25377345374345
 20
2.048940087803914
 30
0.0
 11
19.44127345374345
 21
2.048940087803914
 31
0.0
  0
LINE
  5
3A89
330
18
100
AcDbEntity
  8
0
100
AcDbLine
 10
17.25377345374345
 20
2.048940087803923
 30
0.0
 11
17.25377345374345
 21
2.548940087803913
 31
0.0
  0
LINE
  5
3A8A
330
18
100
AcDbEntity
  8
0
100
AcDbLine
 10
20.94127345374346
 20
2.048940087803927
 30
0.0
 11
20.94127345374345
 21
2.548940087803913
 31
0.0
  0
LINE
  5
3A8B
330
18
100
AcDbEntity
  8
0
100
AcDbLine
 10
19.44127345374345
 20
2.048940087803925
 30
0.0
 11
19.44127345374345
 21
2.548940087803913
 31
0.0
  0
LINE
  5
3A8C
330
18
100
AcDbEntity
  8
0
100
AcDbLine
 10
24.62877360893517
 20
3.048940125547503
 30
0.0
 11
26.81627360893517
 21
3.048940125547504
 31
0.0
  0
LINE
  5
3A8D
330
18
100
AcDbEntity
  8
0
100
AcDbLine
 10
24.62877345374346
 20
2.048940087803914
 30
0.0
 11
26.81627345374346
 21
2.048940087803915
 31
0.0
  0
LINE
  5
3A8E
330
18
100
AcDbEntity
  8
0
100
AcDbLine
 10
23.12877345374346
 20
2.548940087803927
 30
0.0
 11
24.62877345374346
 21
2.548940087803927
 31
0.0
  0
LINE
  5
3A8F
330
18
100
AcDbEntity
  8
0
100
AcDbLine
 10
24.62877345374346
 20
2.048940087803932
 30
0.0
 11
24.62877345374345
 21
2.548940087803913
 31
0.0
  0
LINE
  5
3A90
330
18
100
AcDbEntity
  8
0
100
AcDbLine
 10
23.12877345374346
 20
2.04894008780393
 30
0.0
 11
23.12877345374345
 21
2.548940087803913
 31
0.0
  0
LINE
  5
3A91
330
18
100
AcDbEntity
  8
0
100
AcDbLine
 10
26.81627345374346
 20
2.548940087803931
 30
0.0
 11
28.31627345374346
 21
2.548940087803931
 31
0.0
  0
LINE
  5
3A92
330
18
100
AcDbEntity
  8
0
100
AcDbLine
 10
28.31627345374346
 20
2.048940087803936
 30
0.0
 11
28.31627345374345
 21
2.548940087803913
 31
0.0
  0
LINE
  5
3A93
330
18
100
AcDbEntity
  8
0
100
AcDbLine
 10
26.81627345374346
 20
2.048940087803934
 30
0.0
 11
26.81627345374345
 21
2.548940087803913
 31
0.0
  0
LINE
  5
3A94
330
18
100
AcDbEntity
  8
0
100
AcDbLine
 10
32.00377360893516
 20
3.048940125547503
 30
0.0
 11
34.19127360893516
 21
3.048940125547503
 31
0.0
  0
LINE
  5
3A95
330
18
100
AcDbEntity
  8
0
100
AcDbLine
 10
32.00377345374346
 20
2.048940087803913
 30
0.0
 11
34.19127345374346
 21
2.048940087803914
 31
0.0
  0
LINE
  5
3A96
330
18
100
AcDbEntity
  8
0
100
AcDbLine
 10
30.50377345374346
 20
2.548940087803934
 30
0.0
 11
32.00377345374346
 21
2.548940087803934
 31
0.0
  0
LINE
  5
3A97
330
18
100
AcDbEntity
  8
0
100
AcDbLine
 10
32.00377345374346
 20
2.04894008780394
 30
0.0
 11
32.00377345374346
 21
2.548940087803913
 31
0.0
  0
LINE
  5
3A98
330
18
100
AcDbEntity
  8
0
100
AcDbLine
 10
30.50377345374346
 20
2.048940087803939
 30
0.0
 11
30.50377345374345
 21
2.548940087803913
 31
0.0
  0
LINE
  5
3A99
330
18
100
AcDbEntity
  8
0
100
AcDbLine
 10
34.19127345374346
 20
2.548940087803934
 30
0.0
 11
34.65142860315662
 21
2.548940087803934
 31
0.0
  0
LINE
  5
3A9A
330
18
100
AcDbEntity
  8
0
100
AcDbLine
 10
34.65142860315662
 20
2.548940087803892
 30
0.0
 11
34.65142860315662
 21
3.04894008780387
 31
0.0
  0
LINE
  5
3A9B
330
18
100
AcDbEntity
  8
0
100
AcDbLine
 10
34.19127345374346
 20
2.048940087803914
 30
0.0
 11
34.19127345374346
 21
2.548940087803913
 31
0.0
  0
MTEXT
  5
3A9C
330
18
100
AcDbEntity
  8
TITRES
100
AcDbMText
 10
38.62627726276287
 20
3.048908837803934
 30
0.0
 40
0.09375
 41
15.01253715071357
 71
     1
 72
     5
  1
{\H5.333x;vue du dessus / Top View}
 73
     1
 44
1.0
  0
MTEXT
  5
3AA3
330
18
100
AcDbEntity
  8
TITRES
100
AcDbMText
 10
38.72189832211228
 20
-1.749059957563958
 30
0.0
 40
0.09375
 41
15.01253715071357
 71
     1
 72
     5
  1
{\H5.333x;vue du dessous / Bottom View}
 73
     1
 44
1.0
  0
MTEXT
  5
3AAA
330
18
100
AcDbEntity
  8
TITRES
100
AcDbMText
 10
38.62627726276287
 20
8.507646460366263
 30
0.0
 40
0.09375
 41
15.01253715071357
 71
     1
 72
     5
  1
{\H5.333x;vue de face / Front View}
 73
     1
 44
1.0
  0
ENDSEC
  0
SECTION
  2
OBJECTS
  0
DICTIONARY
  5
C
330
0
100
AcDbDictionary
281
     1
  3
ACAD_COLOR
350
39AC
  3
ACAD_GROUP
350
D
  3
ACAD_IMAGE_DICT
350
21
  3
ACAD_IMAGE_VARS
350
20
  3
ACAD_LAYOUT
350
39AD
  3
ACAD_MATERIAL
350
39AB
  3
ACAD_MLINESTYLE
350
1B
  3
ACAD_PLOTSETTINGS
350
39AE
  3
ACAD_PLOTSTYLENAME
350
39A9
  3
ACDBVARIABLEDICTIONARY
350
34D4
  0
DICTIONARY
  5
39AC
102
{ACAD_REACTORS
330
C
102
}
330
C
100
AcDbDictionary
281
     1
  0
DICTIONARY
  5
D
102
{ACAD_REACTORS
330
C
102
}
330
C
100
AcDbDictionary
281
     1
  0
DICTIONARY
  5
21
102
{ACAD_REACTORS
330
C
102
}
330
C
100
AcDbDictionary
281
     1
  3
3304-1
350
22
  3
3304-1B
350
1C41
  3
3304-2
350
25
  3
3304-2B
350
1C44
  3
3304-3
350
28
  3
3304-3B
350
1C47
  0
RASTERVARIABLES
  5
20
102
{ACAD_REACTORS
330
C
102
}
330
C
100
AcDbRasterVariables
 90
        0
 70
     1
 71
     1
 72
     0
  0
DICTIONARY
  5
39AD
102
{ACAD_REACTORS
330
C
102
}
330
C
100
AcDbDictionary
281
     1
  3
Layout1
350
39B0
  3
Model
350
39AF
  0
DICTIONARY
  5
39AB
102
{ACAD_REACTORS
330
C
102
}
330
C
100
AcDbDictionary
281
     1
  0
DICTIONARY
  5
1B
102
{ACAD_REACTORS
330
C
102
}
330
C
100
AcDbDictionary
281
     1
  3
STANDARD
350
1C
  0
DICTIONARY
  5
39AE
102
{ACAD_REACTORS
330
C
102
}
330
C
100
AcDbDictionary
281
     1
  0
ACDBDICTIONARYWDFLT
  5
39A9
102
{ACAD_REACTORS
330
C
102
}
330
C
100
AcDbDictionary
281
     1
  3
Normal
350
39AA
100
AcDbDictionaryWithDefault
340
39AA
  0
DICTIONARY
  5
34D4
102
{ACAD_REACTORS
330
C
102
}
330
C
100
AcDbDictionary
281
     1
  3
SORTENTS
350
34D5
  0
IMAGEDEF
  5
22
102
{ACAD_REACTORS
330
21
102
}
330
21
100
AcDbRasterImageDef
 90
        0
  1
U:\TPDWG\MichelQ\3304-1.tif
 10
2243.0
 20
3009.0
 11
0.0705555555555556
 21
0.0705555555555556
280
     1
281
     5
  0
IMAGEDEF
  5
1C41
102
{ACAD_REACTORS
330
21
102
}
330
21
100
AcDbRasterImageDef
 90
        0
  1
U:\TPDWG\MichelQ\3304-1b.TIF
 10
2202.0
 20
2931.0
 11
0.0705555555555556
 21
0.0705555555555556
280
     1
281
     5
  0
IMAGEDEF
  5
25
102
{ACAD_REACTORS
330
21
102
}
330
21
100
AcDbRasterImageDef
 90
        0
  1
U:\TPDWG\MichelQ\3304-2.tif
 10
2243.0
 20
3009.0
 11
0.0705555555555556
 21
0.0705555555555556
280
     1
281
     5
  0
IMAGEDEF
  5
1C44
102
{ACAD_REACTORS
330
21
102
}
330
21
100
AcDbRasterImageDef
 90
        0
  1
U:\TPDWG\MichelQ\3304-2b.TIF
 10
2202.0
 20
2931.0
 11
0.0705555555555556
 21
0.0705555555555556
280
     1
281
     5
  0
IMAGEDEF
  5
28
102
{ACAD_REACTORS
330
21
102
}
330
21
100
AcDbRasterImageDef
 90
        0
  1
U:\TPDWG\MichelQ\3304-3.tif
 10
2243.0
 20
3009.0
 11
0.0705555555555556
 21
0.0705555555555556
280
     1
281
     5
  0
IMAGEDEF
  5
1C47
102
{ACAD_REACTORS
330
21
102
}
330
21
100
AcDbRasterImageDef
 90
        0
  1
U:\TPDWG\MichelQ\3304-3b.TIF
 10
2202.0
 20
2931.0
 11
0.0705555555555556
 21
0.0705555555555556
280
     1
281
     5
  0
LAYOUT
  5
39B0
102
{ACAD_REACTORS
330
39AD
102
}
330
39AD
100
AcDbPlotSettings
  1

  2
None
  4

  6

 40
0.0
 41
0.0
 42
0.0
 43
0.0
 44
0.0
 45
0.0
 46
0.0
 47
0.0
 48
0.0
 49
0.0
140
0.0
141
0.0
142
1.0
143
1.0
 70
   688
 72
     0
 73
     0
 74
     5
  7

 75
    16
147
1.0
 76
     0
 77
     2
 78
   300
148
0.0
149
0.0
100
AcDbLayout
  1
Layout1
 70
     1
 71
     1
 10
0.0
 20
0.0
 11
420.0
 21
297.0
 12
0.0
 22
0.0
 32
0.0
 14
1.000000000000000E+20
 24
1.000000000000000E+20
 34
1.000000000000000E+20
 15
-1.000000000000000E+20
 25
-1.000000000000000E+20
 35
-1.000000000000000E+20
146
0.0
 13
0.0
 23
0.0
 33
0.0
 16
1.0
 26
0.0
 36
0.0
 17
0.0
 27
1.0
 37
0.0
 76
     0
330
15
  0
LAYOUT
  5
39AF
102
{ACAD_REACTORS
330
39AD
102
}
330
39AD
100
AcDbPlotSettings
  1

  2
None
  4

  6

 40
0.0
 41
0.0
 42
0.0
 43
0.0
 44
0.0
 45
0.0
 46
0.0
 47
0.0
 48
0.0
 49
0.0
140
0.0
141
0.0
142
1.0
143
1.0
 70
  1712
 72
     0
 73
     0
 74
     0
  7

 75
     0
147
1.0
 76
     0
 77
     2
 78
   300
148
0.0
149
0.0
100
AcDbLayout
  1
Model
 70
     1
 71
     0
 10
0.0
 20
0.0
 11
12.0
 21
9.0
 12
0.0
 22
0.0
 32
0.0
 14
0.0
 24
0.0
 34
0.0
 15
0.0
 25
0.0
 35
0.0
146
0.0
 13
0.0
 23
0.0
 33
0.0
 16
1.0
 26
0.0
 36
0.0
 17
0.0
 27
1.0
 37
0.0
 76
     0
330
18
  0
MLINESTYLE
  5
1C
102
{ACAD_REACTORS
330
1B
102
}
330
1B
100
AcDbMlineStyle
  2
STANDARD
 70
     0
  3

 62
   256
 51
90.0
 52
90.0
 71
     2
 49
0.5
 62
   256
  6
BYLAYER
 49
-0.5
 62
   256
  6
BYLAYER
  0
ACDBPLACEHOLDER
  5
39AA
102
{ACAD_REACTORS
330
39A9
102
}
330
39A9
  0
DICTIONARYVAR
  5
34D5
102
{ACAD_REACTORS
330
34D4
102
}
330
34D4
100
DictionaryVariables
280
     0
  1
96
  0
ENDSEC
  0
EOF
