  0
SECTION
  2
HEADER
  9
$ACADVER
  1
AC1018
  9
$ACADMAINTVER
 70
     0
  9
$DWGCODEPAGE
  3
ANSI_1252
  9
$INSBASE
 10
0.0
 20
0.0
 30
0.0
  9
$EXTMIN
 10
11.11620843257833
 20
9.493921909005308
 30
0.0
  9
$EXTMAX
 10
43.82777229962956
 20
19.49392190900531
 30
0.0
  9
$LIMMIN
 10
0.0
 20
0.0
  9
$LIMMAX
 10
420.0
 20
297.0
  9
$ORTHOMODE
 70
     0
  9
$REGENMODE
 70
     1
  9
$FILLMODE
 70
     1
  9
$QTEXTMODE
 70
     0
  9
$MIRRTEXT
 70
     1
  9
$LTSCALE
 40
0.04
  9
$ATTMODE
 70
     1
  9
$TEXTSIZE
 40
2.5
  9
$TRACEWID
 40
1.0
  9
$TEXTSTYLE
  7
STANDARD
  9
$CLAYER
  8
0
  9
$CELTYPE
  6
BYLAYER
  9
$CECOLOR
 62
   256
  9
$CELTSCALE
 40
1.0
  9
$DISPSILH
 70
     0
  9
$DIMSCALE
 40
1.0
  9
$DIMASZ
 40
0.18
  9
$DIMEXO
 40
0.0625
  9
$DIMDLI
 40
0.38
  9
$DIMRND
 40
0.0
  9
$DIMDLE
 40
0.0
  9
$DIMEXE
 40
0.18
  9
$DIMTP
 40
0.0
  9
$DIMTM
 40
0.0
  9
$DIMTXT
 40
0.5
  9
$DIMCEN
 40
0.09
  9
$DIMTSZ
 40
0.0
  9
$DIMTOL
 70
     0
  9
$DIMLIM
 70
     0
  9
$DIMTIH
 70
     0
  9
$DIMTOH
 70
     0
  9
$DIMSE1
 70
     0
  9
$DIMSE2
 70
     0
  9
$DIMTAD
 70
     0
  9
$DIMZIN
 70
     0
  9
$DIMBLK
  1

  9
$DIMASO
 70
     1
  9
$DIMSHO
 70
     1
  9
$DIMPOST
  1

  9
$DIMAPOST
  1

  9
$DIMALT
 70
     0
  9
$DIMALTD
 70
     2
  9
$DIMALTF
 40
25.4
  9
$DIMLFAC
 40
1.0
  9
$DIMTOFL
 70
     0
  9
$DIMTVP
 40
0.0
  9
$DIMTIX
 70
     0
  9
$DIMSOXD
 70
     0
  9
$DIMSAH
 70
     0
  9
$DIMBLK1
  1

  9
$DIMBLK2
  1

  9
$DIMSTYLE
  2
STANDARD
  9
$DIMCLRD
 70
     0
  9
$DIMCLRE
 70
     0
  9
$DIMCLRT
 70
     0
  9
$DIMTFAC
 40
1.0
  9
$DIMGAP
 40
0.09
  9
$DIMJUST
 70
     0
  9
$DIMSD1
 70
     0
  9
$DIMSD2
 70
     0
  9
$DIMTOLJ
 70
     1
  9
$DIMTZIN
 70
     0
  9
$DIMALTZ
 70
     0
  9
$DIMALTTZ
 70
     0
  9
$DIMUPT
 70
     0
  9
$DIMDEC
 70
     4
  9
$DIMTDEC
 70
     4
  9
$DIMALTU
 70
     2
  9
$DIMALTTD
 70
     2
  9
$DIMTXSTY
  7
STANDARD
  9
$DIMAUNIT
 70
     0
  9
$DIMADEC
 70
     0
  9
$DIMALTRND
 40
0.0
  9
$DIMAZIN
 70
     0
  9
$DIMDSEP
 70
    46
  9
$DIMATFIT
 70
     3
  9
$DIMFRAC
 70
     0
  9
$DIMLDRBLK
  1

  9
$DIMLUNIT
 70
     2
  9
$DIMLWD
 70
    -2
  9
$DIMLWE
 70
    -2
  9
$DIMTMOVE
 70
     0
  9
$LUNITS
 70
     4
  9
$LUPREC
 70
     4
  9
$SKETCHINC
 40
1.0
  9
$FILLETRAD
 40
0.0
  9
$AUNITS
 70
     0
  9
$AUPREC
 70
     0
  9
$MENU
  1
.
  9
$ELEVATION
 40
0.0
  9
$PELEVATION
 40
0.0
  9
$THICKNESS
 40
0.0
  9
$LIMCHECK
 70
     0
  9
$CHAMFERA
 40
10.0
  9
$CHAMFERB
 40
10.0
  9
$CHAMFERC
 40
20.0
  9
$CHAMFERD
 40
0.0
  9
$SKPOLY
 70
     0
  9
$TDCREATE
 40
2451158.474098033
  9
$TDUCREATE
 40
2451158.640764699
  9
$TDUPDATE
 40
2453488.694500046
  9
$TDUUPDATE
 40
2453488.861166713
  9
$TDINDWG
 40
0.4783290972
  9
$TDUSRTIMER
 40
0.4783290972
  9
$USRTIMER
 70
     1
  9
$ANGBASE
 50
0.0
  9
$ANGDIR
 70
     0
  9
$PDMODE
 70
     3
  9
$PDSIZE
 40
0.25
  9
$PLINEWID
 40
0.0
  9
$SPLFRAME
 70
     0
  9
$SPLINETYPE
 70
     6
  9
$SPLINESEGS
 70
     8
  9
$HANDSEED
  5
3804
  9
$SURFTAB1
 70
     6
  9
$SURFTAB2
 70
     6
  9
$SURFTYPE
 70
     6
  9
$SURFU
 70
     6
  9
$SURFV
 70
     6
  9
$UCSBASE
  2

  9
$UCSNAME
  2

  9
$UCSORG
 10
0.0
 20
0.0
 30
0.0
  9
$UCSXDIR
 10
1.0
 20
0.0
 30
0.0
  9
$UCSYDIR
 10
0.0
 20
1.0
 30
0.0
  9
$UCSORTHOREF
  2

  9
$UCSORTHOVIEW
 70
     0
  9
$UCSORGTOP
 10
0.0
 20
0.0
 30
0.0
  9
$UCSORGBOTTOM
 10
0.0
 20
0.0
 30
0.0
  9
$UCSORGLEFT
 10
0.0
 20
0.0
 30
0.0
  9
$UCSORGRIGHT
 10
0.0
 20
0.0
 30
0.0
  9
$UCSORGFRONT
 10
0.0
 20
0.0
 30
0.0
  9
$UCSORGBACK
 10
0.0
 20
0.0
 30
0.0
  9
$PUCSBASE
  2

  9
$PUCSNAME
  2

  9
$PUCSORG
 10
0.0
 20
0.0
 30
0.0
  9
$PUCSXDIR
 10
1.0
 20
0.0
 30
0.0
  9
$PUCSYDIR
 10
0.0
 20
1.0
 30
0.0
  9
$PUCSORTHOREF
  2

  9
$PUCSORTHOVIEW
 70
     0
  9
$PUCSORGTOP
 10
0.0
 20
0.0
 30
0.0
  9
$PUCSORGBOTTOM
 10
0.0
 20
0.0
 30
0.0
  9
$PUCSORGLEFT
 10
0.0
 20
0.0
 30
0.0
  9
$PUCSORGRIGHT
 10
0.0
 20
0.0
 30
0.0
  9
$PUCSORGFRONT
 10
0.0
 20
0.0
 30
0.0
  9
$PUCSORGBACK
 10
0.0
 20
0.0
 30
0.0
  9
$USERI1
 70
     0
  9
$USERI2
 70
     0
  9
$USERI3
 70
     0
  9
$USERI4
 70
     0
  9
$USERI5
 70
     0
  9
$USERR1
 40
0.0
  9
$USERR2
 40
0.0
  9
$USERR3
 40
0.0
  9
$USERR4
 40
0.0
  9
$USERR5
 40
0.0
  9
$WORLDVIEW
 70
     1
  9
$SHADEDGE
 70
     3
  9
$SHADEDIF
 70
    70
  9
$TILEMODE
 70
     1
  9
$MAXACTVP
 70
    48
  9
$PINSBASE
 10
0.0
 20
0.0
 30
0.0
  9
$PLIMCHECK
 70
     0
  9
$PEXTMIN
 10
1.000000000000000E+20
 20
1.000000000000000E+20
 30
1.000000000000000E+20
  9
$PEXTMAX
 10
-1.000000000000000E+20
 20
-1.000000000000000E+20
 30
-1.000000000000000E+20
  9
$PLIMMIN
 10
0.0
 20
0.0
  9
$PLIMMAX
 10
420.0
 20
297.0
  9
$UNITMODE
 70
     0
  9
$VISRETAIN
 70
     1
  9
$PLINEGEN
 70
     0
  9
$PSLTSCALE
 70
     1
  9
$TREEDEPTH
 70
  3020
  9
$CMLSTYLE
  2
STANDARD
  9
$CMLJUST
 70
     0
  9
$CMLSCALE
 40
20.0
  9
$PROXYGRAPHICS
 70
     1
  9
$MEASUREMENT
 70
     1
  9
$CELWEIGHT
370
    -1
  9
$ENDCAPS
280
     0
  9
$JOINSTYLE
280
     0
  9
$LWDISPLAY
290
     0
  9
$INSUNITS
 70
     0
  9
$HYPERLINKBASE
  1

  9
$STYLESHEET
  1

  9
$XEDIT
290
     1
  9
$CEPSNTYPE
380
     0
  9
$PSTYLEMODE
290
     1
  9
$FINGERPRINTGUID
  2
{A101ED7D-5A8C-4F77-A2A2-72A7766EDAEC}
  9
$VERSIONGUID
  2
{BEDFDEC8-D2D0-430C-9253-ABE63537C749}
  9
$EXTNAMES
290
     1
  9
$PSVPSCALE
 40
0.0
  9
$OLESTARTUP
290
     0
  9
$SORTENTS
280
    96
  9
$INDEXCTL
280
     0
  9
$HIDETEXT
280
     0
  9
$XCLIPFRAME
290
     0
  9
$HALOGAP
280
     0
  9
$OBSCOLOR
 70
   257
  9
$OBSLTYPE
280
     0
  9
$INTERSECTIONDISPLAY
280
     0
  9
$INTERSECTIONCOLOR
 70
   257
  9
$DIMASSOC
280
     1
  9
$PROJECTNAME
  1

  0
ENDSEC
  0
SECTION
  2
CLASSES
  0
CLASS
  1
RASTERVARIABLES
  2
AcDbRasterVariables
  3
ISM
 90
        0
 91
        1
280
     0
281
     0
  0
CLASS
  1
IMAGEDEF
  2
AcDbRasterImageDef
  3
ISM
 90
        0
 91
        6
280
     0
281
     0
  0
CLASS
  1
IMAGEDEF_REACTOR
  2
AcDbRasterImageDefReactor
  3
ISM
 90
        1
 91
        0
280
     0
281
     0
  0
CLASS
  1
IMAGE
  2
AcDbRasterImage
  3
ISM
 90
      127
 91
        0
280
     0
281
     1
  0
CLASS
  1
DICTIONARYVAR
  2
AcDbDictionaryVar
  3
ObjectDBX Classes
 90
        0
 91
        1
280
     0
281
     0
  0
CLASS
  1
ACDBDICTIONARYWDFLT
  2
AcDbDictionaryWithDefault
  3
ObjectDBX Classes
 90
        0
 91
        1
280
     0
281
     0
  0
ENDSEC
  0
SECTION
  2
TABLES
  0
TABLE
  2
VPORT
  5
8
330
0
100
AcDbSymbolTable
 70
     2
  0
VPORT
  5
3803
330
8
100
AcDbSymbolTableRecord
100
AcDbViewportTableRecord
  2
*Active
 70
     0
 10
0.0
 20
0.0
 11
1.0
 21
1.0
 12
29.54422640958938
 22
14.1880650108489
 13
0.0
 23
0.0
 14
10.0
 24
10.0
 15
10.0
 25
10.0
 16
0.0
 26
0.0
 36
1.0
 17
0.0
 27
0.0
 37
0.0
 40
26.36961230847731
 41
1.977142857142857
 42
50.0
 43
0.0
 44
0.0
 50
0.0
 51
0.0
 71
     0
 72
   100
 73
     1
 74
     1
 75
     0
 76
     0
 77
     0
 78
     0
281
     0
 65
     1
110
0.0
120
0.0
130
0.0
111
1.0
121
0.0
131
0.0
112
0.0
122
1.0
132
0.0
 79
     0
146
0.0
  0
ENDTAB
  0
TABLE
  2
LTYPE
  5
5
330
0
100
AcDbSymbolTable
 70
     1
  0
LTYPE
  5
12
330
5
100
AcDbSymbolTableRecord
100
AcDbLinetypeTableRecord
  2
BYBLOCK
 70
     0
  3

 72
    65
 73
     0
 40
0.0
  0
LTYPE
  5
13
330
5
100
AcDbSymbolTableRecord
100
AcDbLinetypeTableRecord
  2
BYLAYER
 70
     0
  3

 72
    65
 73
     0
 40
0.0
  0
LTYPE
  5
14
330
5
100
AcDbSymbolTableRecord
100
AcDbLinetypeTableRecord
  2
CONTINUOUS
 70
     0
  3
Solid line
 72
    65
 73
     0
 40
0.0
  0
ENDTAB
  0
TABLE
  2
LAYER
  5
2
330
0
100
AcDbSymbolTable
 70
     2
  0
LAYER
  5
E
330
2
100
AcDbSymbolTableRecord
100
AcDbLayerTableRecord
  2
0
 70
     0
 62
     7
  6
CONTINUOUS
370
    -3
390
369A
  0
LAYER
  5
36A5
330
2
100
AcDbSymbolTableRecord
100
AcDbLayerTableRecord
  2
Defpoints
 70
     0
 62
     7
  6
CONTINUOUS
290
     0
370
    -3
390
369A
  0
ENDTAB
  0
TABLE
  2
STYLE
  5
3
330
0
100
AcDbSymbolTable
 70
     1
  0
STYLE
  5
F
330
3
100
AcDbSymbolTableRecord
100
AcDbTextStyleTableRecord
  2
STANDARD
 70
     0
 40
0.0
 41
1.0
 50
0.0
 71
     0
 42
2.5
  3
txt
  4

  0
ENDTAB
  0
TABLE
  2
VIEW
  5
6
330
0
100
AcDbSymbolTable
 70
     0
  0
ENDTAB
  0
TABLE
  2
UCS
  5
7
330
0
100
AcDbSymbolTable
 70
     0
  0
ENDTAB
  0
TABLE
  2
APPID
  5
9
330
0
100
AcDbSymbolTable
 70
     1
  0
APPID
  5
10
330
9
100
AcDbSymbolTableRecord
100
AcDbRegAppTableRecord
  2
ACAD
 70
     0
  0
ENDTAB
  0
TABLE
  2
DIMSTYLE
  5
A
330
0
100
AcDbSymbolTable
 70
     1
100
AcDbDimStyleTable
 71
     1
340
1D
  0
DIMSTYLE
105
1D
330
A
100
AcDbSymbolTableRecord
100
AcDbDimStyleTableRecord
  2
STANDARD
 70
     0
 73
     0
 74
     0
140
0.5
340
F
  0
ENDTAB
  0
TABLE
  2
BLOCK_RECORD
  5
1
330
0
100
AcDbSymbolTable
 70
    16
  0
BLOCK_RECORD
  5
18
330
1
100
AcDbSymbolTableRecord
100
AcDbBlockTableRecord
  2
*MODEL_SPACE
340
369F
  0
BLOCK_RECORD
  5
15
330
1
100
AcDbSymbolTableRecord
100
AcDbBlockTableRecord
  2
*PAPER_SPACE
340
36A0
  0
BLOCK_RECORD
  5
3669
330
1
100
AcDbSymbolTableRecord
100
AcDbBlockTableRecord
  2
6113_C
340
0
  0
BLOCK_RECORD
  5
3681
330
1
100
AcDbSymbolTableRecord
100
AcDbBlockTableRecord
  2
6113_E
340
0
  0
ENDTAB
  0
ENDSEC
  0
SECTION
  2
BLOCKS
  0
BLOCK
  5
19
330
18
100
AcDbEntity
  8
0
100
AcDbBlockBegin
  2
*MODEL_SPACE
 70
     0
 10
0.0
 20
0.0
 30
0.0
  3
*MODEL_SPACE
  1

  0
ENDBLK
  5
1A
330
18
100
AcDbEntity
  8
0
100
AcDbBlockEnd
  0
BLOCK
  5
16
330
15
100
AcDbEntity
 67
     1
  8
0
100
AcDbBlockBegin
  2
*PAPER_SPACE
 70
     0
 10
0.0
 20
0.0
 30
0.0
  3
*PAPER_SPACE
  1

  0
ENDBLK
  5
17
330
15
100
AcDbEntity
 67
     1
  8
0
100
AcDbBlockEnd
  0
BLOCK
  5
366A
330
3669
100
AcDbEntity
  8
0
100
AcDbBlockBegin
  2
6113_C
 70
     0
 10
0.0
 20
0.0
 30
0.0
  3
6113_C
  1

  0
LINE
  5
366B
330
3669
100
AcDbEntity
  8
0
100
AcDbLine
 10
-1.125
 20
-6.0
 30
0.0
 11
-1.125
 21
-0.4999999999999929
 31
0.0
  0
LINE
  5
366C
330
3669
100
AcDbEntity
  8
0
100
AcDbLine
 10
-2.625
 20
-4.875000000000001
 30
0.0
 11
-2.625
 21
-6.750000000000001
 31
0.0
  0
ARC
  5
366D
330
3669
100
AcDbEntity
  8
0
100
AcDbCircle
 10
-2.625
 20
-7.375000000000001
 30
0.0
 40
0.625
100
AcDbArc
 50
0.0000000000001667
 51
90.00000000000003
  0
LINE
  5
366E
330
3669
100
AcDbEntity
  8
0
100
AcDbLine
 10
0.0
 20
-7.250000000000003
 30
0.0
 11
0.0
 21
-10.0
 31
0.0
  0
LINE
  5
366F
330
3669
100
AcDbEntity
  8
0
100
AcDbLine
 10
-0.7500000000000142
 20
-10.0
 30
0.0
 11
0.0
 21
-10.0
 31
0.0
  0
LINE
  5
3670
330
3669
100
AcDbEntity
  8
0
100
AcDbLine
 10
-0.7500000000000142
 20
-9.504711549193363
 30
0.0
 11
-0.7500000000000142
 21
-10.0
 31
0.0
  0
LINE
  5
3671
330
3669
100
AcDbEntity
  8
0
100
AcDbLine
 10
-1.375000000000007
 20
-8.067211549193364
 30
0.0
 11
-1.375000000000007
 21
-8.879711549193364
 31
0.0
  0
ARC
  5
3672
330
3669
100
AcDbEntity
  8
0
100
AcDbCircle
 10
-1.375000000000007
 20
-7.817211549193364
 30
0.0
 40
0.25
100
AcDbArc
 50
180.0
 51
270.0
  0
LINE
  5
3673
330
3669
100
AcDbEntity
  8
0
100
AcDbLine
 10
-2.000000000000007
 20
-7.817211549193364
 30
0.0
 11
-1.625000000000007
 21
-7.817211549193364
 31
0.0
  0
LINE
  5
3674
330
3669
100
AcDbEntity
  8
0
100
AcDbLine
 10
-2.000000000000007
 20
-7.375
 30
0.0
 11
-2.000000000000007
 21
-7.817211549193364
 31
0.0
  0
LINE
  5
3675
330
3669
100
AcDbEntity
  8
0
100
AcDbLine
 10
-1.125
 20
-6.0
 30
0.0
 11
0.0
 21
-7.250000000000003
 31
0.0
  0
ARC
  5
3676
330
3669
100
AcDbEntity
  8
0
100
AcDbCircle
 10
-1.375000000000007
 20
-9.504711549193364
 30
0.0
 40
0.625
100
AcDbArc
 50
0.0000000000001667
 51
90.00000000000003
  0
ARC
  5
3677
330
3669
100
AcDbEntity
  8
0
100
AcDbCircle
 10
-2.75
 20
-0.5
 30
0.0
 40
0.625
100
AcDbArc
 50
270.0
 51
0.0
  0
ARC
  5
3678
330
3669
100
AcDbEntity
  8
0
100
AcDbCircle
 10
-2.625
 20
-4.250000000000001
 30
0.0
 40
0.625
100
AcDbArc
 50
270.0
 51
359.9999999999998
  0
LINE
  5
3679
330
3669
100
AcDbEntity
  8
0
100
AcDbLine
 10
-2.750000000000007
 20
-4.0
 30
0.0
 11
-2.000000000000007
 21
-3.999999999999998
 31
0.0
  0
LINE
  5
367A
330
3669
100
AcDbEntity
  8
0
100
AcDbLine
 10
-2.750000000000007
 20
-4.0
 30
0.0
 11
-2.75
 21
-1.125
 31
0.0
  0
LINE
  5
367B
330
3669
100
AcDbEntity
  8
0
100
AcDbLine
 10
0.0
 20
-0.4999999999999965
 30
0.0
 11
0.0
 21
0.0
 31
0.0
  0
LINE
  5
367C
330
3669
100
AcDbEntity
  8
0
100
AcDbLine
 10
-2.125000000000007
 20
-0.5
 30
0.0
 11
-2.125
 21
0.0
 31
0.0
  0
LINE
  5
367D
330
3669
100
AcDbEntity
  8
0
100
AcDbLine
 10
-2.000000000000007
 20
-4.250000000000003
 30
0.0
 11
-2.000000000000007
 21
-3.999999999999998
 31
0.0
  0
LINE
  5
367E
330
3669
100
AcDbEntity
  8
0
100
AcDbLine
 10
-2.124999999999992
 20
0.0
 30
0.0
 11
0.0
 21
0.0
 31
0.0
  0
LINE
  5
367F
330
3669
100
AcDbEntity
  8
0
100
AcDbLine
 10
-1.125
 20
-0.4999999999999929
 30
0.0
 11
0.0
 21
-0.4999999999999965
 31
0.0
  0
ENDBLK
  5
3680
330
3669
100
AcDbEntity
  8
0
100
AcDbBlockEnd
  0
BLOCK
  5
3682
330
3681
100
AcDbEntity
  8
0
100
AcDbBlockBegin
  2
6113_E
 70
     0
 10
0.0
 20
0.0
 30
0.0
  3
6113_E
  1

  0
LINE
  5
3683
330
3681
100
AcDbEntity
  8
0
100
AcDbLine
 10
0.0
 20
0.0
 30
0.0
 11
24.0
 21
-0.0000000000000036
 31
0.0
  0
LINE
  5
3684
330
3681
100
AcDbEntity
  8
0
100
AcDbLine
 10
0.0
 20
10.0
 30
0.0
 11
24.0
 21
10.0
 31
0.0
  0
LINE
  5
3685
330
3681
100
AcDbEntity
  8
0
100
AcDbLine
 10
24.0
 20
9.5
 30
0.0
 11
0.0
 21
9.500000000000003
 31
0.0
  0
LINE
  5
3686
330
3681
100
AcDbEntity
  8
0
100
AcDbLine
 10
24.0
 20
8.875
 30
0.0
 11
0.0
 21
8.875000000000003
 31
0.0
  0
LINE
  5
3687
330
3681
100
AcDbEntity
  8
0
100
AcDbLine
 10
24.0
 20
6.0
 30
0.0
 11
0.0
 21
6.000000000000003
 31
0.0
  0
LINE
  5
3688
330
3681
100
AcDbEntity
  8
0
100
AcDbLine
 10
24.0
 20
5.124999999999998
 30
0.0
 11
0.0
 21
5.125000000000001
 31
0.0
  0
LINE
  5
3689
330
3681
100
AcDbEntity
  8
0
100
AcDbLine
 10
24.0
 20
3.249999999999998
 30
0.0
 11
0.0
 21
3.250000000000001
 31
0.0
  0
LINE
  5
368A
330
3681
100
AcDbEntity
  8
0
100
AcDbLine
 10
24.0
 20
2.625
 30
0.0
 11
0.0
 21
2.625000000000003
 31
0.0
  0
LINE
  5
368B
330
3681
100
AcDbEntity
  8
0
100
AcDbLine
 10
24.0
 20
2.182788450806635
 30
0.0
 11
0.0
 21
2.182788450806638
 31
0.0
  0
LINE
  5
368C
330
3681
100
AcDbEntity
  8
0
100
AcDbLine
 10
24.0
 20
1.932788450806635
 30
0.0
 11
0.0
 21
1.932788450806638
 31
0.0
  0
LINE
  5
368D
330
3681
100
AcDbEntity
  8
0
100
AcDbLine
 10
24.0
 20
1.120288450806635
 30
0.0
 11
0.0
 21
1.120288450806638
 31
0.0
  0
LINE
  5
368E
330
3681
100
AcDbEntity
  8
0
100
AcDbLine
 10
24.0
 20
0.4952884508066369
 30
0.0
 11
0.0
 21
0.4952884508066405
 31
0.0
  0
LINE
  5
368F
330
3681
100
AcDbEntity
  8
0
100
AcDbLine
 10
24.0
 20
5.749999999999996
 30
0.0
 11
0.0
 21
5.75
 31
0.0
  0
LINE
  5
3690
330
3681
100
AcDbEntity
  8
0
100
AcDbLine
 10
0.0
 20
0.0
 30
0.0
 11
0.0
 21
10.0
 31
0.0
  0
LINE
  5
3691
330
3681
100
AcDbEntity
  8
0
100
AcDbLine
 10
24.0
 20
-0.0000000000000036
 30
0.0
 11
24.0
 21
10.0
 31
0.0
  0
ENDBLK
  5
3692
330
3681
100
AcDbEntity
  8
0
100
AcDbBlockEnd
  0
ENDSEC
  0
SECTION
  2
ENTITIES
  0
LINE
  5
3627
330
18
100
AcDbEntity
  8
0
100
AcDbLine
 10
43.07777229962954
 20
9.493921909005312
 30
0.0
 11
43.82777229962956
 21
9.493921909005312
 31
0.0
  0
LINE
  5
3628
330
18
100
AcDbEntity
  8
0
100
AcDbLine
 10
43.82777229962956
 20
18.86892190900532
 30
0.0
 11
43.82777229962956
 21
19.49392190900531
 31
0.0
  0
LINE
  5
3629
330
18
100
AcDbEntity
  8
0
100
AcDbLine
 10
41.70277229962956
 20
19.49392190900531
 30
0.0
 11
43.82777229962956
 21
19.49392190900531
 31
0.0
  0
LINE
  5
362B
330
18
100
AcDbEntity
  8
0
100
AcDbLine
 10
41.70277229962954
 20
18.99392190900531
 30
0.0
 11
41.70277229962955
 21
19.49392190900531
 31
0.0
  0
LINE
  5
362C
330
18
100
AcDbEntity
  8
0
100
AcDbLine
 10
42.70277229962956
 20
18.86892190900532
 30
0.0
 11
43.82777229962956
 21
18.86892190900532
 31
0.0
  0
LINE
  5
362D
330
18
100
AcDbEntity
  8
0
100
AcDbLine
 10
41.07777229962954
 20
15.49392190900531
 30
0.0
 11
41.07777229962955
 21
18.36892190900531
 31
0.0
  0
ARC
  5
362E
330
18
100
AcDbEntity
  8
0
100
AcDbCircle
 10
41.07777229962955
 20
18.99392190900532
 30
0.0
 40
0.6250000000000036
100
AcDbArc
 50
270.0
 51
359.9999999999997
  0
LINE
  5
362F
330
18
100
AcDbEntity
  8
0
100
AcDbLine
 10
42.70277229962956
 20
13.36892190900531
 30
0.0
 11
42.70277229962956
 21
18.86892190900532
 31
0.0
  0
LINE
  5
3632
330
18
100
AcDbEntity
  8
0
100
AcDbLine
 10
42.70277229962956
 20
13.36892190900531
 30
0.0
 11
43.82777229962956
 21
12.11892190900531
 31
0.0
  0
LINE
  5
3633
330
18
100
AcDbEntity
  8
0
100
AcDbLine
 10
43.82777229962956
 20
12.11892190900531
 30
0.0
 11
43.82777229962956
 21
9.493921909005312
 31
0.0
  0
LINE
  5
3636
330
18
100
AcDbEntity
  8
0
100
AcDbLine
 10
41.07777229962954
 20
15.49392190900531
 30
0.0
 11
41.82777229962955
 21
15.49392190900532
 31
0.0
  0
LINE
  5
3638
330
18
100
AcDbEntity
  8
0
100
AcDbLine
 10
41.82777229962955
 20
15.24392190900531
 30
0.0
 11
41.82777229962955
 21
15.49392190900532
 31
0.0
  0
ARC
  5
363A
330
18
100
AcDbEntity
  8
0
100
AcDbCircle
 10
41.08560204375524
 20
15.22698045556724
 30
0.0
 40
0.7423635912065909
100
AcDbArc
 50
279.0811993230848
 51
1.307658492384198
  0
LINE
  5
363F
330
18
100
AcDbEntity
  8
0
100
AcDbLine
 10
41.20277229962955
 20
14.49392190900531
 30
0.0
 11
41.20277229962955
 21
12.61892190900531
 31
0.0
  0
LINE
  5
3640
330
18
100
AcDbEntity
  8
0
100
AcDbLine
 10
41.82777229962955
 20
12.06112190900531
 30
0.0
 11
41.82777229962955
 21
11.61891035981195
 31
0.0
  0
ARC
  5
3641
330
18
100
AcDbEntity
  8
0
100
AcDbCircle
 10
41.25714095894315
 20
12.05079263699205
 30
0.0
 40
0.5707248205868384
100
AcDbArc
 50
1.037025173036974
 51
95.46642707375385
  0
LINE
  5
3645
330
18
100
AcDbEntity
  8
0
100
AcDbLine
 10
41.82777229962955
 20
11.61891035981195
 30
0.0
 11
42.20277229962955
 21
11.61891035981195
 31
0.0
  0
ARC
  5
3647
330
18
100
AcDbEntity
  8
0
100
AcDbCircle
 10
42.43531275349137
 20
11.60145081367378
 30
0.0
 40
0.233194979434836
100
AcDbArc
 50
175.7061884998026
 51
274.2938115001985
  0
LINE
  5
3648
330
18
100
AcDbEntity
  8
0
100
AcDbLine
 10
42.45277229962955
 20
11.36891035981195
 30
0.0
 11
42.45277229962955
 21
10.61891035981195
 31
0.0
  0
ARC
  5
364B
330
18
100
AcDbEntity
  8
0
100
AcDbCircle
 10
42.45277229962954
 20
9.993910359811941
 30
0.0
 40
0.6250000000000142
100
AcDbArc
 50
0.0000000000009771
 51
89.9999999999987
  0
LINE
  5
364C
330
18
100
AcDbEntity
  8
0
100
AcDbLine
 10
43.07777229962954
 20
9.993910359811952
 30
0.0
 11
43.07777229962954
 21
9.493921909005312
 31
0.0
  0
LINE
  5
364F
330
18
100
AcDbEntity
  8
0
100
AcDbLine
 10
11.11620843257833
 20
19.49392190900531
 30
0.0
 11
38.11620843257833
 21
19.49392190900531
 31
0.0
  0
LINE
  5
3650
330
18
100
AcDbEntity
  8
0
100
AcDbLine
 10
38.11620843257833
 20
9.493921909005308
 30
0.0
 11
38.11620843257833
 21
19.49392190900531
 31
0.0
  0
LINE
  5
3651
330
18
100
AcDbEntity
  8
0
100
AcDbLine
 10
11.11620843257833
 20
9.49392190900531
 30
0.0
 11
38.11620843257833
 21
9.493921909005308
 31
0.0
  0
LINE
  5
3652
330
18
100
AcDbEntity
  8
0
100
AcDbLine
 10
11.11620843257833
 20
9.493921909005312
 30
0.0
 11
11.11620843257833
 21
19.49392190900531
 31
0.0
  0
LINE
  5
37F4
330
18
100
AcDbEntity
  8
0
100
AcDbLine
 10
38.11620843257833
 20
18.36892190900531
 30
0.0
 11
11.11620843257833
 21
18.36892190900531
 31
0.0
  0
LINE
  5
37F5
330
18
100
AcDbEntity
  8
0
100
AcDbLine
 10
38.11620843257833
 20
15.49392190900531
 30
0.0
 11
11.11620843257833
 21
15.49392190900531
 31
0.0
  0
LINE
  5
37F7
330
18
100
AcDbEntity
  8
0
100
AcDbLine
 10
38.11620843257833
 20
14.49392190900531
 30
0.0
 11
11.11620843257833
 21
14.49392190900531
 31
0.0
  0
LINE
  5
37F8
330
18
100
AcDbEntity
  8
0
100
AcDbLine
 10
38.11620843257833
 20
12.61892190900531
 30
0.0
 11
11.11620843257833
 21
12.61892190900531
 31
0.0
  0
LINE
  5
37F9
330
18
100
AcDbEntity
  8
0
100
AcDbLine
 10
38.11620843257833
 20
11.61891035981195
 30
0.0
 11
11.11620843257833
 21
11.61891035981195
 31
0.0
  0
LINE
  5
37FA
330
18
100
AcDbEntity
  8
0
100
AcDbLine
 10
38.11620843257833
 20
11.36825583423894
 30
0.0
 11
11.11620843257833
 21
11.36825583423894
 31
0.0
  0
LINE
  5
37FB
330
18
100
AcDbEntity
  8
0
100
AcDbLine
 10
38.11620843257833
 20
10.61891035981195
 30
0.0
 11
11.11620843257833
 21
10.61891035981195
 31
0.0
  0
ENDSEC
  0
SECTION
  2
OBJECTS
  0
DICTIONARY
  5
C
330
0
100
AcDbDictionary
281
     1
  3
ACAD_COLOR
350
369C
  3
ACAD_GROUP
350
D
  3
ACAD_IMAGE_DICT
350
21
  3
ACAD_IMAGE_VARS
350
20
  3
ACAD_LAYOUT
350
369D
  3
ACAD_MATERIAL
350
369B
  3
ACAD_MLINESTYLE
350
1B
  3
ACAD_PLOTSETTINGS
350
369E
  3
ACAD_PLOTSTYLENAME
350
3699
  3
ACDBVARIABLEDICTIONARY
350
34D4
  0
DICTIONARY
  5
369C
102
{ACAD_REACTORS
330
C
102
}
330
C
100
AcDbDictionary
281
     1
  0
DICTIONARY
  5
D
102
{ACAD_REACTORS
330
C
102
}
330
C
100
AcDbDictionary
281
     1
  0
DICTIONARY
  5
21
102
{ACAD_REACTORS
330
C
102
}
330
C
100
AcDbDictionary
281
     1
  3
3304-1
350
22
  3
3304-1B
350
1C41
  3
3304-2
350
25
  3
3304-2B
350
1C44
  3
3304-3
350
28
  3
3304-3B
350
1C47
  0
RASTERVARIABLES
  5
20
102
{ACAD_REACTORS
330
C
102
}
330
C
100
AcDbRasterVariables
 90
        0
 70
     1
 71
     1
 72
     0
  0
DICTIONARY
  5
369D
102
{ACAD_REACTORS
330
C
102
}
330
C
100
AcDbDictionary
281
     1
  3
Layout1
350
36A0
  3
Model
350
369F
  0
DICTIONARY
  5
369B
102
{ACAD_REACTORS
330
C
102
}
330
C
100
AcDbDictionary
281
     1
  0
DICTIONARY
  5
1B
102
{ACAD_REACTORS
330
C
102
}
330
C
100
AcDbDictionary
281
     1
  3
STANDARD
350
1C
  0
DICTIONARY
  5
369E
102
{ACAD_REACTORS
330
C
102
}
330
C
100
AcDbDictionary
281
     1
  0
ACDBDICTIONARYWDFLT
  5
3699
102
{ACAD_REACTORS
330
C
102
}
330
C
100
AcDbDictionary
281
     1
  3
Normal
350
369A
100
AcDbDictionaryWithDefault
340
369A
  0
DICTIONARY
  5
34D4
102
{ACAD_REACTORS
330
C
102
}
330
C
100
AcDbDictionary
281
     1
  3
SORTENTS
350
34D5
  0
IMAGEDEF
  5
22
102
{ACAD_REACTORS
330
21
102
}
330
21
100
AcDbRasterImageDef
 90
        0
  1
U:\TPDWG\MichelQ\3304-1.tif
 10
2243.0
 20
3009.0
 11
0.0705555555555556
 21
0.0705555555555556
280
     1
281
     5
  0
IMAGEDEF
  5
1C41
102
{ACAD_REACTORS
330
21
102
}
330
21
100
AcDbRasterImageDef
 90
        0
  1
U:\TPDWG\MichelQ\3304-1b.TIF
 10
2202.0
 20
2931.0
 11
0.0705555555555556
 21
0.0705555555555556
280
     1
281
     5
  0
IMAGEDEF
  5
25
102
{ACAD_REACTORS
330
21
102
}
330
21
100
AcDbRasterImageDef
 90
        0
  1
U:\TPDWG\MichelQ\3304-2.tif
 10
2243.0
 20
3009.0
 11
0.0705555555555556
 21
0.0705555555555556
280
     1
281
     5
  0
IMAGEDEF
  5
1C44
102
{ACAD_REACTORS
330
21
102
}
330
21
100
AcDbRasterImageDef
 90
        0
  1
U:\TPDWG\MichelQ\3304-2b.TIF
 10
2202.0
 20
2931.0
 11
0.0705555555555556
 21
0.0705555555555556
280
     1
281
     5
  0
IMAGEDEF
  5
28
102
{ACAD_REACTORS
330
21
102
}
330
21
100
AcDbRasterImageDef
 90
        0
  1
U:\TPDWG\MichelQ\3304-3.tif
 10
2243.0
 20
3009.0
 11
0.0705555555555556
 21
0.0705555555555556
280
     1
281
     5
  0
IMAGEDEF
  5
1C47
102
{ACAD_REACTORS
330
21
102
}
330
21
100
AcDbRasterImageDef
 90
        0
  1
U:\TPDWG\MichelQ\3304-3b.TIF
 10
2202.0
 20
2931.0
 11
0.0705555555555556
 21
0.0705555555555556
280
     1
281
     5
  0
LAYOUT
  5
36A0
102
{ACAD_REACTORS
330
369D
102
}
330
369D
100
AcDbPlotSettings
  1

  2
None
  4

  6

 40
0.0
 41
0.0
 42
0.0
 43
0.0
 44
0.0
 45
0.0
 46
0.0
 47
0.0
 48
0.0
 49
0.0
140
0.0
141
0.0
142
1.0
143
1.0
 70
   688
 72
     0
 73
     0
 74
     5
  7

 75
    16
147
1.0
 76
     0
 77
     2
 78
   300
148
0.0
149
0.0
100
AcDbLayout
  1
Layout1
 70
     1
 71
     1
 10
0.0
 20
0.0
 11
420.0
 21
297.0
 12
0.0
 22
0.0
 32
0.0
 14
1.000000000000000E+20
 24
1.000000000000000E+20
 34
1.000000000000000E+20
 15
-1.000000000000000E+20
 25
-1.000000000000000E+20
 35
-1.000000000000000E+20
146
0.0
 13
0.0
 23
0.0
 33
0.0
 16
1.0
 26
0.0
 36
0.0
 17
0.0
 27
1.0
 37
0.0
 76
     0
330
15
  0
LAYOUT
  5
369F
102
{ACAD_REACTORS
330
369D
102
}
330
369D
100
AcDbPlotSettings
  1

  2
None
  4

  6

 40
0.0
 41
0.0
 42
0.0
 43
0.0
 44
0.0
 45
0.0
 46
0.0
 47
0.0
 48
0.0
 49
0.0
140
0.0
141
0.0
142
1.0
143
1.0
 70
  1712
 72
     0
 73
     0
 74
     0
  7

 75
     0
147
1.0
 76
     0
 77
     2
 78
   300
148
0.0
149
0.0
100
AcDbLayout
  1
Model
 70
     1
 71
     0
 10
0.0
 20
0.0
 11
12.0
 21
9.0
 12
0.0
 22
0.0
 32
0.0
 14
0.0
 24
0.0
 34
0.0
 15
0.0
 25
0.0
 35
0.0
146
0.0
 13
0.0
 23
0.0
 33
0.0
 16
1.0
 26
0.0
 36
0.0
 17
0.0
 27
1.0
 37
0.0
 76
     0
330
18
  0
MLINESTYLE
  5
1C
102
{ACAD_REACTORS
330
1B
102
}
330
1B
100
AcDbMlineStyle
  2
STANDARD
 70
     0
  3

 62
   256
 51
90.0
 52
90.0
 71
     2
 49
0.5
 62
   256
  6
BYLAYER
 49
-0.5
 62
   256
  6
BYLAYER
  0
ACDBPLACEHOLDER
  5
369A
102
{ACAD_REACTORS
330
3699
102
}
330
3699
  0
DICTIONARYVAR
  5
34D5
102
{ACAD_REACTORS
330
34D4
102
}
330
34D4
100
DictionaryVariables
280
     0
  1
96
  0
ENDSEC
  0
EOF
