  0
SECTION
  2
HEADER
  9
$ACADVER
  1
AC1018
  9
$ACADMAINTVER
 70
     0
  9
$DWGCODEPAGE
  3
ANSI_1252
  9
$INSBASE
 10
0.0
 20
0.0
 30
0.0
  9
$EXTMIN
 10
11.65951593082923
 20
10.14516972075679
 30
0.0
  9
$EXTMAX
 10
42.2597261469485
 20
15.39514734544749
 30
0.0
  9
$LIMMIN
 10
0.0
 20
0.0
  9
$LIMMAX
 10
12.0
 20
9.0
  9
$ORTHOMODE
 70
     0
  9
$REGENMODE
 70
     1
  9
$FILLMODE
 70
     1
  9
$QTEXTMODE
 70
     0
  9
$MIRRTEXT
 70
     1
  9
$LTSCALE
 40
1.0
  9
$ATTMODE
 70
     1
  9
$TEXTSIZE
 40
0.2
  9
$TRACEWID
 40
0.05
  9
$TEXTSTYLE
  7
STANDARD
  9
$CLAYER
  8
0
  9
$CELTYPE
  6
BYLAYER
  9
$CECOLOR
 62
   256
  9
$CELTSCALE
 40
1.0
  9
$DISPSILH
 70
     0
  9
$DIMSCALE
 40
1.0
  9
$DIMASZ
 40
0.18
  9
$DIMEXO
 40
0.0625
  9
$DIMDLI
 40
0.38
  9
$DIMRND
 40
0.0
  9
$DIMDLE
 40
0.0
  9
$DIMEXE
 40
0.18
  9
$DIMTP
 40
0.0
  9
$DIMTM
 40
0.0
  9
$DIMTXT
 40
0.18
  9
$DIMCEN
 40
0.09
  9
$DIMTSZ
 40
0.0
  9
$DIMTOL
 70
     0
  9
$DIMLIM
 70
     0
  9
$DIMTIH
 70
     1
  9
$DIMTOH
 70
     1
  9
$DIMSE1
 70
     0
  9
$DIMSE2
 70
     0
  9
$DIMTAD
 70
     0
  9
$DIMZIN
 70
     0
  9
$DIMBLK
  1

  9
$DIMASO
 70
     1
  9
$DIMSHO
 70
     1
  9
$DIMPOST
  1

  9
$DIMAPOST
  1

  9
$DIMALT
 70
     0
  9
$DIMALTD
 70
     2
  9
$DIMALTF
 40
25.4
  9
$DIMLFAC
 40
1.0
  9
$DIMTOFL
 70
     0
  9
$DIMTVP
 40
0.0
  9
$DIMTIX
 70
     0
  9
$DIMSOXD
 70
     0
  9
$DIMSAH
 70
     0
  9
$DIMBLK1
  1

  9
$DIMBLK2
  1

  9
$DIMSTYLE
  2
STANDARD
  9
$DIMCLRD
 70
     0
  9
$DIMCLRE
 70
     0
  9
$DIMCLRT
 70
     0
  9
$DIMTFAC
 40
1.0
  9
$DIMGAP
 40
0.09
  9
$DIMJUST
 70
     0
  9
$DIMSD1
 70
     0
  9
$DIMSD2
 70
     0
  9
$DIMTOLJ
 70
     1
  9
$DIMTZIN
 70
     0
  9
$DIMALTZ
 70
     0
  9
$DIMALTTZ
 70
     0
  9
$DIMUPT
 70
     0
  9
$DIMDEC
 70
     4
  9
$DIMTDEC
 70
     4
  9
$DIMALTU
 70
     2
  9
$DIMALTTD
 70
     2
  9
$DIMTXSTY
  7
STANDARD
  9
$DIMAUNIT
 70
     0
  9
$DIMADEC
 70
     0
  9
$DIMALTRND
 40
0.0
  9
$DIMAZIN
 70
     0
  9
$DIMDSEP
 70
    46
  9
$DIMATFIT
 70
     3
  9
$DIMFRAC
 70
     0
  9
$DIMLDRBLK
  1

  9
$DIMLUNIT
 70
     2
  9
$DIMLWD
 70
    -2
  9
$DIMLWE
 70
    -2
  9
$DIMTMOVE
 70
     0
  9
$LUNITS
 70
     4
  9
$LUPREC
 70
     4
  9
$SKETCHINC
 40
0.1
  9
$FILLETRAD
 40
0.0
  9
$AUNITS
 70
     0
  9
$AUPREC
 70
     0
  9
$MENU
  1
.
  9
$ELEVATION
 40
0.0
  9
$PELEVATION
 40
0.0
  9
$THICKNESS
 40
0.0
  9
$LIMCHECK
 70
     0
  9
$CHAMFERA
 40
0.5
  9
$CHAMFERB
 40
0.5
  9
$CHAMFERC
 40
1.0
  9
$CHAMFERD
 40
0.0
  9
$SKPOLY
 70
     0
  9
$TDCREATE
 40
2451160.360457639
  9
$TDUCREATE
 40
2451160.527124306
  9
$TDUPDATE
 40
2453488.695359595
  9
$TDUUPDATE
 40
2453488.862026262
  9
$TDINDWG
 40
0.4374972454
  9
$TDUSRTIMER
 40
0.4374972454
  9
$USRTIMER
 70
     1
  9
$ANGBASE
 50
0.0
  9
$ANGDIR
 70
     0
  9
$PDMODE
 70
     3
  9
$PDSIZE
 40
1.0
  9
$PLINEWID
 40
0.0
  9
$SPLFRAME
 70
     0
  9
$SPLINETYPE
 70
     6
  9
$SPLINESEGS
 70
     8
  9
$HANDSEED
  5
157D9
  9
$SURFTAB1
 70
     6
  9
$SURFTAB2
 70
     6
  9
$SURFTYPE
 70
     6
  9
$SURFU
 70
     6
  9
$SURFV
 70
     6
  9
$UCSBASE
  2

  9
$UCSNAME
  2

  9
$UCSORG
 10
0.0
 20
0.0
 30
0.0
  9
$UCSXDIR
 10
1.0
 20
0.0
 30
0.0
  9
$UCSYDIR
 10
0.0
 20
1.0
 30
0.0
  9
$UCSORTHOREF
  2

  9
$UCSORTHOVIEW
 70
     0
  9
$UCSORGTOP
 10
0.0
 20
0.0
 30
0.0
  9
$UCSORGBOTTOM
 10
0.0
 20
0.0
 30
0.0
  9
$UCSORGLEFT
 10
0.0
 20
0.0
 30
0.0
  9
$UCSORGRIGHT
 10
0.0
 20
0.0
 30
0.0
  9
$UCSORGFRONT
 10
0.0
 20
0.0
 30
0.0
  9
$UCSORGBACK
 10
0.0
 20
0.0
 30
0.0
  9
$PUCSBASE
  2

  9
$PUCSNAME
  2

  9
$PUCSORG
 10
0.0
 20
0.0
 30
0.0
  9
$PUCSXDIR
 10
1.0
 20
0.0
 30
0.0
  9
$PUCSYDIR
 10
0.0
 20
1.0
 30
0.0
  9
$PUCSORTHOREF
  2

  9
$PUCSORTHOVIEW
 70
     0
  9
$PUCSORGTOP
 10
0.0
 20
0.0
 30
0.0
  9
$PUCSORGBOTTOM
 10
0.0
 20
0.0
 30
0.0
  9
$PUCSORGLEFT
 10
0.0
 20
0.0
 30
0.0
  9
$PUCSORGRIGHT
 10
0.0
 20
0.0
 30
0.0
  9
$PUCSORGFRONT
 10
0.0
 20
0.0
 30
0.0
  9
$PUCSORGBACK
 10
0.0
 20
0.0
 30
0.0
  9
$USERI1
 70
     0
  9
$USERI2
 70
     0
  9
$USERI3
 70
     0
  9
$USERI4
 70
     0
  9
$USERI5
 70
     0
  9
$USERR1
 40
0.0
  9
$USERR2
 40
0.0
  9
$USERR3
 40
0.0
  9
$USERR4
 40
0.0
  9
$USERR5
 40
0.0
  9
$WORLDVIEW
 70
     1
  9
$SHADEDGE
 70
     3
  9
$SHADEDIF
 70
    70
  9
$TILEMODE
 70
     1
  9
$MAXACTVP
 70
    48
  9
$PINSBASE
 10
0.0
 20
0.0
 30
0.0
  9
$PLIMCHECK
 70
     0
  9
$PEXTMIN
 10
1.000000000000000E+20
 20
1.000000000000000E+20
 30
1.000000000000000E+20
  9
$PEXTMAX
 10
-1.000000000000000E+20
 20
-1.000000000000000E+20
 30
-1.000000000000000E+20
  9
$PLIMMIN
 10
0.0
 20
0.0
  9
$PLIMMAX
 10
12.0
 20
9.0
  9
$UNITMODE
 70
     0
  9
$VISRETAIN
 70
     1
  9
$PLINEGEN
 70
     0
  9
$PSLTSCALE
 70
     1
  9
$TREEDEPTH
 70
  3020
  9
$CMLSTYLE
  2
STANDARD
  9
$CMLJUST
 70
     0
  9
$CMLSCALE
 40
1.0
  9
$PROXYGRAPHICS
 70
     1
  9
$MEASUREMENT
 70
     0
  9
$CELWEIGHT
370
    -1
  9
$ENDCAPS
280
     0
  9
$JOINSTYLE
280
     0
  9
$LWDISPLAY
290
     0
  9
$INSUNITS
 70
     0
  9
$HYPERLINKBASE
  1

  9
$STYLESHEET
  1

  9
$XEDIT
290
     1
  9
$CEPSNTYPE
380
     0
  9
$PSTYLEMODE
290
     1
  9
$FINGERPRINTGUID
  2
{9F27B3FE-F7C2-4CE9-A986-20125759A454}
  9
$VERSIONGUID
  2
{A5F33E43-044D-44B4-A6B2-725DACDE9A73}
  9
$EXTNAMES
290
     1
  9
$PSVPSCALE
 40
0.0
  9
$OLESTARTUP
290
     0
  9
$SORTENTS
280
   127
  9
$INDEXCTL
280
     0
  9
$HIDETEXT
280
     0
  9
$XCLIPFRAME
290
     0
  9
$HALOGAP
280
     0
  9
$OBSCOLOR
 70
   257
  9
$OBSLTYPE
280
     0
  9
$INTERSECTIONDISPLAY
280
     0
  9
$INTERSECTIONCOLOR
 70
   257
  9
$DIMASSOC
280
     1
  9
$PROJECTNAME
  1

  0
ENDSEC
  0
SECTION
  2
CLASSES
  0
CLASS
  1
RASTERVARIABLES
  2
AcDbRasterVariables
  3
ISM
 90
        0
 91
        1
280
     0
281
     0
  0
CLASS
  1
IMAGEDEF
  2
AcDbRasterImageDef
  3
ISM
 90
        0
 91
        1
280
     0
281
     0
  0
CLASS
  1
IMAGEDEF_REACTOR
  2
AcDbRasterImageDefReactor
  3
ISM
 90
        1
 91
        0
280
     0
281
     0
  0
CLASS
  1
IMAGE
  2
AcDbRasterImage
  3
ISM
 90
      127
 91
        0
280
     0
281
     1
  0
CLASS
  1
ACDBDICTIONARYWDFLT
  2
AcDbDictionaryWithDefault
  3
ObjectDBX Classes
 90
        0
 91
        1
280
     0
281
     0
  0
ENDSEC
  0
SECTION
  2
TABLES
  0
TABLE
  2
VPORT
  5
8
330
0
100
AcDbSymbolTable
 70
     2
  0
VPORT
  5
157D8
330
8
100
AcDbSymbolTableRecord
100
AcDbViewportTableRecord
  2
*Active
 70
     0
 10
0.0
 20
0.0
 11
1.0
 21
1.0
 12
29.23892713395316
 22
11.95808885732023
 13
0.0
 23
0.0
 14
0.5
 24
0.5
 15
0.5
 25
0.5
 16
0.0
 26
0.0
 36
1.0
 17
0.0
 27
0.0
 37
0.0
 40
20.45732888111353
 41
1.977142857142857
 42
50.0
 43
0.0
 44
0.0
 50
0.0
 51
0.0
 71
     0
 72
   100
 73
     1
 74
     1
 75
     0
 76
     0
 77
     0
 78
     0
281
     0
 65
     1
110
0.0
120
0.0
130
0.0
111
1.0
121
0.0
131
0.0
112
0.0
122
1.0
132
0.0
 79
     0
146
0.0
  0
ENDTAB
  0
TABLE
  2
LTYPE
  5
5
330
0
100
AcDbSymbolTable
 70
     1
  0
LTYPE
  5
12
330
5
100
AcDbSymbolTableRecord
100
AcDbLinetypeTableRecord
  2
BYBLOCK
 70
     0
  3

 72
    65
 73
     0
 40
0.0
  0
LTYPE
  5
13
330
5
100
AcDbSymbolTableRecord
100
AcDbLinetypeTableRecord
  2
BYLAYER
 70
     0
  3

 72
    65
 73
     0
 40
0.0
  0
LTYPE
  5
14
330
5
100
AcDbSymbolTableRecord
100
AcDbLinetypeTableRecord
  2
CONTINUOUS
 70
     0
  3
Solid line
 72
    65
 73
     0
 40
0.0
  0
ENDTAB
  0
TABLE
  2
LAYER
  5
2
330
0
100
AcDbSymbolTable
 70
     2
  0
LAYER
  5
E
330
2
100
AcDbSymbolTableRecord
100
AcDbLayerTableRecord
  2
0
 70
     0
 62
     7
  6
CONTINUOUS
370
    -3
390
1570F
  0
LAYER
  5
15719
330
2
100
AcDbSymbolTableRecord
100
AcDbLayerTableRecord
  2
Defpoints
 70
     0
 62
     7
  6
CONTINUOUS
290
     0
370
    -3
390
1570F
  0
ENDTAB
  0
TABLE
  2
STYLE
  5
3
330
0
100
AcDbSymbolTable
 70
     1
  0
STYLE
  5
F
330
3
100
AcDbSymbolTableRecord
100
AcDbTextStyleTableRecord
  2
STANDARD
 70
     0
 40
0.0
 41
1.0
 50
0.0
 71
     0
 42
0.2
  3
txt
  4

  0
ENDTAB
  0
TABLE
  2
VIEW
  5
6
330
0
100
AcDbSymbolTable
 70
     0
  0
ENDTAB
  0
TABLE
  2
UCS
  5
7
330
0
100
AcDbSymbolTable
 70
     0
  0
ENDTAB
  0
TABLE
  2
APPID
  5
9
330
0
100
AcDbSymbolTable
 70
     1
  0
APPID
  5
10
330
9
100
AcDbSymbolTableRecord
100
AcDbRegAppTableRecord
  2
ACAD
 70
     0
  0
ENDTAB
  0
TABLE
  2
DIMSTYLE
  5
A
330
0
100
AcDbSymbolTable
 70
     1
100
AcDbDimStyleTable
 71
     1
340
1D
  0
DIMSTYLE
105
1D
330
A
100
AcDbSymbolTableRecord
100
AcDbDimStyleTableRecord
  2
STANDARD
 70
     0
340
F
  0
ENDTAB
  0
TABLE
  2
BLOCK_RECORD
  5
1
330
0
100
AcDbSymbolTable
 70
     9
  0
BLOCK_RECORD
  5
18
330
1
100
AcDbSymbolTableRecord
100
AcDbBlockTableRecord
  2
*MODEL_SPACE
340
15714
  0
BLOCK_RECORD
  5
15
330
1
100
AcDbSymbolTableRecord
100
AcDbBlockTableRecord
  2
*PAPER_SPACE
340
15715
  0
BLOCK_RECORD
  5
1558C
330
1
100
AcDbSymbolTableRecord
100
AcDbBlockTableRecord
  2
6122_E
340
0
  0
BLOCK_RECORD
  5
15596
330
1
100
AcDbSymbolTableRecord
100
AcDbBlockTableRecord
  2
6122_C
340
0
  0
ENDTAB
  0
ENDSEC
  0
SECTION
  2
BLOCKS
  0
BLOCK
  5
19
330
18
100
AcDbEntity
  8
0
100
AcDbBlockBegin
  2
*MODEL_SPACE
 70
     0
 10
0.0
 20
0.0
 30
0.0
  3
*MODEL_SPACE
  1

  0
ENDBLK
  5
1A
330
18
100
AcDbEntity
  8
0
100
AcDbBlockEnd
  0
BLOCK
  5
16
330
15
100
AcDbEntity
 67
     1
  8
0
100
AcDbBlockBegin
  2
*PAPER_SPACE
 70
     0
 10
0.0
 20
0.0
 30
0.0
  3
*PAPER_SPACE
  1

  0
ENDBLK
  5
17
330
15
100
AcDbEntity
 67
     1
  8
0
100
AcDbBlockEnd
  0
BLOCK
  5
1558D
330
1558C
100
AcDbEntity
  8
0
100
AcDbBlockBegin
  2
6122_E
 70
     0
 10
0.0
 20
0.0
 30
0.0
  3
6122_E
  1

  0
LINE
  5
1558E
330
1558C
100
AcDbEntity
  8
0
100
AcDbLine
 10
24.0
 20
-5.177277624690695
 30
0.0
 11
0.0
 21
-5.177277624690695
 31
0.0
  0
LINE
  5
1558F
330
1558C
100
AcDbEntity
  8
0
100
AcDbLine
 10
24.0
 20
-0.0000000000000036
 30
0.0
 11
0.0
 21
0.0
 31
0.0
  0
LINE
  5
15590
330
1558C
100
AcDbEntity
  8
0
100
AcDbLine
 10
24.0
 20
-4.156086709311951
 30
0.0
 11
0.0000000000000018
 21
-4.156086709311951
 31
0.0
  0
LINE
  5
15591
330
1558C
100
AcDbEntity
  8
0
100
AcDbLine
 10
24.0
 20
-3.060732924131837
 30
0.0
 11
0.0000000000000018
 21
-3.060732924131837
 31
0.0
  0
LINE
  5
15592
330
1558C
100
AcDbEntity
  8
0
100
AcDbLine
 10
24.0
 20
-0.9763595515826448
 30
0.0
 11
0.0000000000000018
 21
-0.9763595515826448
 31
0.0
  0
LINE
  5
15593
330
1558C
100
AcDbEntity
  8
0
100
AcDbLine
 10
0.0
 20
-5.177277624690695
 30
0.0
 11
0.0
 21
0.0
 31
0.0
  0
LINE
  5
15594
330
1558C
100
AcDbEntity
  8
0
100
AcDbLine
 10
24.0
 20
-5.177277624690695
 30
0.0
 11
24.0
 21
-0.0000000000000036
 31
0.0
  0
ENDBLK
  5
15595
330
1558C
100
AcDbEntity
  8
0
100
AcDbBlockEnd
  0
BLOCK
  5
15597
330
15596
100
AcDbEntity
  8
0
100
AcDbBlockBegin
  2
6122_C
 70
     0
 10
0.0
 20
0.0
 30
0.0
  3
6122_C
  1

  0
LWPOLYLINE
  5
15598
330
15596
100
AcDbEntity
  8
0
100
AcDbPolyline
 90
      293
 70
     0
 43
0.0
 10
2.211011522841324
 20
-5.177277624690692
 10
2.210761806623779
 20
-5.117003998309856
 10
2.210002354519659
 20
-5.073415189858323
 10
2.208645300342503
 20
-5.041387854480412
 10
2.206615943543887
 20
-5.018976417497128
 10
2.203839583575401
 20
-5.00423530422948
 10
2.200241519888614
 20
-4.995218939998469
 10
2.195747051935107
 20
-4.989981750125101
 10
2.190281479166465
 20
-4.986578159930379
 10
2.183790332414048
 20
-4.983358085664409
 10
2.176300068028339
 20
-4.979853407293685
 10
2.167857373739593
 20
-4.975891495713792
 10
2.158508937278071
 20
-4.971299721820329
 10
2.148301446374027
 20
-4.965905456508886
 10
2.137281588757744
 20
-4.959536070675056
 10
2.125496052159455
 20
-4.952018935214427
 10
2.112991524309435
 20
-4.943181421022591
 10
2.099844261838072
 20
-4.932910774855679
 10
2.086248796976192
 20
-4.921333746911974
 10
2.07242923085478
 20
-4.908636963250295
 10
2.058609664604801
 20
-4.895007049929461
 10
2.045014199357204
 20
-4.880630633008291
 10
2.031866936242963
 20
-4.865694338545608
 10
2.019391976393052
 20
-4.850384792600227
 10
2.007813420938433
 20
-4.834888621230973
 10
1.997310239533206
 20
-4.81935512527167
 10
1.987880875923956
 20
-4.803784304656181
 10
1.979478642380456
 20
-4.788138834093372
 10
1.972056851172425
 20
-4.77238138829211
 10
1.965568814569607
 20
-4.756474641961265
 10
1.959967844841735
 20
-4.740381269809706
 10
1.95520725425856
 20
-4.724063946546298
 10
1.951240355089822
 20
-4.707485346879909
 10
1.948031353400409
 20
-4.690622142487049
 10
1.945588030435843
 20
-4.673506992914782
 10
1.943929061236786
 20
-4.656186554677814
 10
1.943073120843934
 20
-4.638707484290849
 10
1.943038884297948
 20
-4.62111643826859
 10
1.943845026639515
 20
-4.603460073125745
 10
1.945510222909291
 20
-4.585785045377019
 10
1.948053148147977
 20
-4.568138011537115
 10
1.951484696107847
 20
-4.550568738541826
 10
1.955784635387701
 20
-4.533139435011284
 10
1.960924953297954
 20
-4.515915419986704
 10
1.966877637149018
 20
-4.498962012509313
 10
1.973614674251308
 20
-4.482344531620324
 10
1.981108051915242
 20
-4.466128296360956
 10
1.98932975745123
 20
-4.45037862577243
 10
1.998251778169688
 20
-4.435160838895965
 10
2.007832095100525
 20
-4.420537144351692
 10
2.017972664151621
 20
-4.406557309075406
 10
2.028561434950347
 20
-4.393267989581806
 10
2.039486357124104
 20
-4.380715842385601
 10
2.050635380300235
 20
-4.368947524001494
 10
2.061896454106154
 20
-4.358009690944191
 10
2.073157528169204
 20
-4.347948999728394
 10
2.084306552116785
 20
-4.338812106868815
 10
2.095257931926752
 20
-4.330611454115929
 10
2.106031898978876
 20
-4.323222624163335
 10
2.116675141003426
 20
-4.316486984940402
 10
2.127234345730663
 20
-4.3102459043765
 10
2.137756200890841
 20
-4.304340750400999
 10
2.148287394214221
 20
-4.298612890943276
 10
2.158874613431066
 20
-4.2929036939327
 10
2.169564546271637
 20
-4.287054527298639
 10
2.180369642763054
 20
-4.280951860254786
 10
2.191165402119857
 20
-4.274662567152113
 10
2.201793085853438
 20
-4.268298623625915
 10
2.212093955475182
 20
-4.261972005311479
 10
2.22190927249651
 20
-4.255794687844097
 10
2.2310802984288
 20
-4.249878646859066
 10
2.239448294783457
 20
-4.244335857991675
 10
2.246854523071874
 20
-4.239278296877213
 10
2.253186932621417
 20
-4.234746399188217
 10
2.258520224023385
 20
-4.230494440746188
 10
2.262975785685
 20
-4.226205157409864
 10
2.266675006013542
 20
-4.221561285037996
 10
2.269739273416256
 20
-4.216245559489317
 10
2.272289976300392
 20
-4.209940716622575
 10
2.274448503073216
 20
-4.202329492296509
 10
2.276336242141965
 20
-4.193094622369866
 10
2.278048125434857
 20
-4.182052591284273
 10
2.279573258963864
 20
-4.169554877812938
 10
2.28087429226192
 20
-4.156086709311948
 10
2.281913874861956
 20
-4.142133313137396
 10
2.282654656296891
 20
-4.128179916645366
 10
2.283059286099671
 20
-4.114711747191961
 10
2.283090413803222
 20
-4.102214032133264
 10
2.282710688940468
 20
-4.091171998825366
 10
2.281839185928006
 20
-4.081954233443426
 10
2.280220678717071
 20
-4.074462757438837
 10
2.27755636614259
 20
-4.068482951082067
 10
2.273547447039454
 20
-4.063800194643572
 10
2.267895120242577
 20
-4.060199868393816
 10
2.260300584586872
 20
-4.057467352603259
 10
2.250465038907236
 20
-4.055388027542363
 10
2.238089682038591
 20
-4.05374727348159
 10
2.223034450983007
 20
-4.052363130212008
 10
2.205794235411232
 20
-4.051184275607129
 10
2.187022663161215
 20
-4.05019204706107
 10
2.167373362070875
 20
-4.049367781967951
 10
2.147499959978148
 20
-4.048692817721885
 10
2.128056084720952
 20
-4.048148491716993
 10
2.109695364137223
 20
-4.047716141347393
 10
2.093071426064888
 20
-4.047377104007203
 10
2.07868849769504
 20
-4.047103385800831
 10
2.066453203631454
 20
-4.046829667673822
 10
2.056122767831055
 20
-4.046481299282024
 10
2.047454414250779
 20
-4.045983630281275
 10
2.040205366847558
 20
-4.045262010327414
 10
2.03413284957832
 20
-4.044241789076281
 10
2.028994086400004
 20
-4.042848316183718
 10
2.024546301269538
 20
-4.041006941305562
 10
2.020579399550761
 20
-4.038664787111397
 10
2.017014012235073
 20
-4.035856068325756
 10
2.013803451720804
 20
-4.032636772686924
 10
2.010901030406252
 20
-4.029062887933172
 10
2.008260060689735
 20
-4.025190401802779
 10
2.005833854969573
 20
-4.021075302034027
 10
2.003575725644068
 20
-4.016773576365189
 10
2.001438985111533
 20
-4.012341212534547
 10
1.999389395775985
 20
-4.007812425266637
 10
1.997442520064154
 20
-4.003134337231038
 10
1.995626370408487
 20
-3.998232298083593
 10
1.993968959241428
 20
-3.993031657480138
 10
1.992498298995414
 20
-3.987457765076518
 10
1.991242402102884
 20
-3.981435970528568
 10
1.990229280996267
 20
-3.974891623492133
 10
1.989486948108009
 20
-3.967750073623051
 10
1.989013847034719
 20
-3.95994911228796
 10
1.988690146029689
 20
-3.951476297696693
 10
1.988366444510354
 20
-3.942331629769885
 10
1.987893341894192
 20
-3.932515108428166
 10
1.987121437598631
 20
-3.922026733592169
 10
1.985901331041141
 20
-3.910866505182523
 10
1.984083621639179
 20
-3.899034423119863
 10
1.981518908810187
 20
-3.886530487324817
 10
1.978096698392079
 20
-3.873364029047419
 10
1.973862121904595
 20
-3.859581704855283
 10
1.968899217287898
 20
-3.845239502645423
 10
1.963292022482185
 20
-3.830393410314854
 10
1.957124575427641
 20
-3.81509941576059
 10
1.950480914064456
 20
-3.799413506879643
 10
1.943445076332785
 20
-3.783391671569031
 10
1.936101100172848
 20
-3.767089897725767
 10
1.928480110759558
 20
-3.750547065844907
 10
1.920401582206864
 20
-3.733733626813707
 10
1.911632075863465
 20
-3.716602924117454
 10
1.901938153078056
 20
-3.69910830124145
 10
1.891086375199343
 20
-3.681203101670984
 10
1.878843303576005
 20
-3.662840668891355
 10
1.864975499556756
 20
-3.643974346387857
 10
1.849249524490275
 20
-3.624557477645785
 10
1.831543990247908
 20
-3.604610280435265
 10
1.812185710791453
 20
-3.584420469665753
 10
1.791613550605369
 20
-3.564342634531532
 10
1.770266374174099
 20
-3.544731364226887
 10
1.748583045982101
 20
-3.525941247946107
 10
1.727002430513806
 20
-3.508326874883474
 10
1.705963392253678
 20
-3.492242834233273
 10
1.685904795686155
 20
-3.478043715189794
 10
1.667178354891575
 20
-3.465981462694333
 10
1.649787182333867
 20
-3.455897444676271
 10
1.633647240072853
 20
-3.447530384811983
 10
1.618674490168338
 20
-3.44061900677787
 10
1.604784894680143
 20
-3.434902034250312
 10
1.591894415668079
 20
-3.430118190905702
 10
1.579919015191968
 20
-3.426006200420426
 10
1.568774655311621
 20
-3.422304786470874
 10
1.558388191946306
 20
-3.418794663596667
 10
1.548730056453038
 20
-3.415424509790364
 10
1.539781574048298
 20
-3.412184993907766
 10
1.531524069948559
 20
-3.409066784804661
 10
1.523938869370297
 20
-3.40606055133685
 10
1.517007297529971
 20
-3.403156962360128
 10
1.510710679644063
 20
-3.400346686730284
 10
1.505030340929039
 20
-3.397620393303121
 10
1.499942937712638
 20
-3.394962530026116
 10
1.495406450767617
 20
-3.392332661213512
 10
1.491374191977989
 20
-3.389684130271234
 10
1.487799473227781
 20
-3.386970280605211
 10
1.484635606400999
 20
-3.384144455621367
 10
1.481835903381686
 20
-3.381159998725632
 10
1.479353676053833
 20
-3.377970253323928
 10
1.477142236301475
 20
-3.374528562822186
 10
1.475173571220736
 20
-3.370733838091984
 10
1.473494368756163
 20
-3.366267259867502
 10
1.472169992064415
 20
-3.360755576348575
 10
1.471265804302142
 20
-3.353825535735033
 10
1.470847168626008
 20
-3.345103886226711
 10
1.470979448192657
 20
-3.334217376023438
 10
1.471728006158755
 20
-3.320792753325051
 10
1.47315820568096
 20
-3.30445676633138
 10
1.475294947113503
 20
-3.285043006952154
 10
1.478001279600952
 20
-3.263212441936675
 10
1.481099789485455
 20
-3.239832881744144
 10
1.484413063109165
 20
-3.215772136833763
 10
1.487763686814218
 20
-3.191898017664728
 10
1.490974246942776
 20
-3.169078334696241
 10
1.493867329836973
 20
-3.148180898387501
 10
1.496265521838964
 20
-3.130073519197706
 10
1.498027042702013
 20
-3.11540060226191
 10
1.499152645823855
 20
-3.103912931418575
 10
1.499678718013321
 20
-3.095137885182012
 10
1.499641646079261
 20
-3.088602842066537
 10
1.499077816830521
 20
-3.083835180586461
 10
1.498023617075958
 20
-3.080362279256103
 10
1.496515433624395
 20
-3.07771151658977
 10
1.494589653284705
 20
-3.075410271101782
 10
1.492246386994345
 20
-3.073050944304799
 10
1.489340642205362
 20
-3.070486029704895
 10
1.485691150498439
 20
-3.067633043806484
 10
1.481116643454235
 20
-3.064409503113992
 10
1.475435852653433
 20
-3.060732924131833
 10
1.468467509676706
 20
-3.056520823364431
 10
1.46003034610473
 20
-3.051690717316207
 10
1.449943093518186
 20
-3.046160122491578
 10
1.438099273061851
 20
-3.039859492904815
 10
1.424691564137049
 20
-3.032771032609575
 10
1.409987435709197
 20
-3.024889883169372
 10
1.394254356743715
 20
-3.016211186147712
 10
1.377759796206042
 20
-3.006730083108106
 10
1.360771223061597
 20
-2.996441715614061
 10
1.343556106275805
 20
-2.985341225229086
 10
1.326381914814092
 20
-2.973423753516692
 10
1.309475287397887
 20
-2.960684181713149
 10
1.292899541772669
 20
-2.94711634974576
 10
1.276677165439899
 20
-2.932713837214597
 10
1.260830645901066
 20
-2.917470223719725
 10
1.245382470657617
 20
-2.901379088861208
 10
1.230355127211048
 20
-2.884434012239118
 10
1.215771103062827
 20
-2.866628573453523
 10
1.201652885714423
 20
-2.847956352104484
 10
1.187980829459689
 20
-2.828303154140039
 10
1.174566755761958
 20
-2.807123690900082
 10
1.161180352876925
 20
-2.783764900072474
 10
1.14759130906031
 20
-2.75757371934508
 10
1.133569312567807
 20
-2.727897086405757
 10
1.118884051655129
 20
-2.694081938942373
 10
1.103305214577972
 20
-2.655475214642784
 10
1.086602489592053
 20
-2.611423851194855
 10
1.068631851493393
 20
-2.561574607629554
 10
1.049594421239362
 20
-2.506773528350272
 10
1.029777606327613
 20
-2.448166479103512
 10
1.009468814255839
 20
-2.38689932563577
 10
0.9889554525217221
 20
-2.32411793369355
 10
0.9685249286229407
 20
-2.26096816902335
 10
0.9484646500571614
 20
-2.198595897371667
 10
0.9290620243220786
 20
-2.138146984485002
 10
0.9105368689303361
 20
-2.080555223235258
 10
0.8928386414544817
 20
-2.02590611499594
 10
0.8758492094820553
 20
-1.974073088265956
 10
0.8594504406005682
 20
-1.924929571544213
 10
0.8435242023975746
 20
-1.87834899332962
 10
0.8279523624605715
 20
-1.834204782121082
 10
0.8126167883771131
 20
-1.792370366417511
 10
0.7973993477347108
 20
-1.75271917471781
 10
0.7821752118426773
 20
-1.715106179748175
 10
0.7667927668974599
 20
-1.679312531143938
 10
0.7510937028172862
 20
-1.645100922767721
 10
0.7349197095203835
 20
-1.61223404848214
 10
0.7181124769249863
 20
-1.580474602149816
 10
0.7005136949493221
 20
-1.549585277633365
 10
0.681965053511604
 20
-1.519328768795407
 10
0.6623082425300666
 20
-1.489467769498558
 10
0.6414228803920992
 20
-1.459819356270193
 10
0.6193402993616317
 20
-1.430418136296683
 10
0.5961297601717775
 20
-1.401353099429149
 10
0.5718605235556283
 20
-1.372713235518716
 10
0.5466018502462831
 20
-1.344587534416504
 10
0.5204230009768409
 20
-1.317064985973637
 10
0.4933932364803937
 20
-1.290234580041243
 10
0.4655818174900475
 20
-1.264185306470437
 10
0.4370810915427868
 20
-1.239007803044625
 10
0.4080757533911453
 20
-1.214799299276332
 10
0.3787735845915492
 20
-1.191658672610362
 10
0.349382366700425
 20
-1.169684800491523
 10
0.3201098812741989
 20
-1.148976560364609
 10
0.2911639098692973
 20
-1.129632829674434
 10
0.2627522340421464
 20
-1.1117524858658
 10
0.2350826353491726
 20
-1.095434406383503
 10
0.2083447557075289
 20
-1.080734621758445
 10
0.1826556784772251
 20
-1.067537774865858
 10
0.1581143473790334
 20
-1.055685661667066
 10
0.1348197061336833
 20
-1.045020078123394
 10
0.1128706984619399
 20
-1.035382820196167
 10
0.0923662680845396
 20
-1.026615683846713
 10
0.0734053587222334
 20
-1.018560465036351
 10
0.0560869140957721
 20
-1.011058959726412
 10
0.0404076361025716
 20
-1.003842550735484
 10
0.025955259346631
 20
-0.9962009683112516
 10
0.012215276608643
 20
-0.987313529558655
 10
-0.001326819330707
 20
-0.976359551582643
  0
LINE
  5
156BF
330
15596
100
AcDbEntity
  8
0
100
AcDbLine
 10
3.499824506016047
 20
0.0
 30
0.0
 11
0.0
 21
0.0
 31
0.0
  0
LINE
  5
156C0
330
15596
100
AcDbEntity
  8
0
100
AcDbLine
 10
0.0
 20
0.0
 30
0.0
 11
0.0
 21
-0.9774327938482301
 31
0.0
  0
LWPOLYLINE
  5
156C1
330
15596
100
AcDbEntity
  8
0
100
AcDbPolyline
 90
       65
 70
     0
 43
0.0
 10
3.499824506016047
 20
-0.715863759571926
 10
3.214941721432019
 20
-0.7261763402878075
 10
2.947384248305397
 20
-0.73650659079712
 10
2.722701339415195
 20
-0.7458619375382157
 10
2.535915143113513
 20
-0.7543548692609097
 10
2.382047807752428
 20
-0.7620978747149963
 10
2.256121481684026
 20
-0.7692034426502943
 10
2.153158313260405
 20
-0.775784061816605
 10
2.068180450833644
 20
-0.7819522209637313
 10
1.996808302096475
 20
-0.7878099932385521
 10
1.937055312104298
 20
-0.7934177893761927
 10
1.887533185253175
 20
-0.7988256045088438
 10
1.846853625939154
 20
-0.8040834337687083
 10
1.813628338558288
 20
-0.8092412722879736
 10
1.786469027506626
 20
-0.8143491151988406
 10
1.763987397180244
 20
-0.8194569576334966
 10
1.744795151975168
 20
-0.824614794724134
 10
1.727699941894428
 20
-0.8298747047764578
 10
1.712293199368872
 20
-0.8352970987901464
 10
1.698362302436308
 20
-0.8409444709383961
 10
1.685694629134552
 20
-0.8468793153943909
 10
1.674077557501412
 20
-0.8531641263313183
 10
1.663298465574705
 20
-0.8598613979223745
 10
1.653144731392231
 20
-0.8670336243407454
 10
1.643403732991806
 20
-0.8747432997596185
 10
1.633904539026097
 20
-0.8832091532692611
 10
1.624642980607191
 20
-0.8932748536282666
 10
1.61565657946204
 20
-0.9059403045123026
 10
1.606982857317575
 20
-0.9222054095970371
 10
1.598659335900748
 20
-0.9430700725581395
 10
1.590723536938497
 20
-0.9695341970712831
 10
1.583212982157775
 20
-1.002597686812132
 10
1.576165193285532
 20
-1.043260445456354
 10
1.569619776503365
 20
-1.09204742239466
 10
1.563624675811574
 20
-1.147583749877885
 10
1.558229919665137
 20
-1.208019605871909
 10
1.553485536518991
 20
-1.271505168342606
 10
1.549441554828135
 20
-1.336190615255855
 10
1.546148003047505
 20
-1.40022612457753
 10
1.543654909632088
 20
-1.461761874273506
 10
1.542012303036841
 20
-1.518948042309665
 10
1.541263958202712
 20
-1.570380597103113
 10
1.5414286360146
 20
-1.616438668875922
 10
1.54251884384341
 20
-1.657947178301398
 10
1.544547089060003
 20
-1.695731046052848
 10
1.547525879035291
 20
-1.730615192803572
 10
1.551467721140156
 20
-1.763424539226878
 10
1.556385122745481
 20
-1.794984005996072
 10
1.562290591222151
 20
-1.826118513784459
 10
1.569559341696731
 20
-1.857918582727558
 10
1.580017420318412
 20
-1.892537130809749
 10
1.595853580992056
 20
-1.932392675477622
 10
1.619256577622529
 20
-1.979903734177771
 10
1.652415164114692
 20
-2.03748882435679
 10
1.697518094373407
 20
-2.107566463461271
 10
1.756754122303547
 20
-2.192555168937802
 10
1.83231200180996
 20
-2.294873458232984
 10
1.926405501132137
 20
-2.416881521073037
 10
2.041348445848086
 20
-2.560706236302722
 10
2.179479675870425
 20
-2.728416155046431
 10
2.343138031111791
 20
-2.922079828428561
 10
2.53466235148479
 20
-3.143765807573497
 10
2.756391476902059
 20
-3.39554264360564
 10
3.010664247276224
 20
-3.679478887649377
 10
3.248941039028061
 20
-3.941660342798988
  0
LINE
  5
15704
330
15596
100
AcDbEntity
  8
0
100
AcDbLine
 10
2.211011522841324
 20
-5.177277624690692
 30
0.0
 11
3.248941039028061
 21
-5.177277624690693
 31
0.0
  0
LINE
  5
15705
330
15596
100
AcDbEntity
  8
0
100
AcDbLine
 10
3.248941039028061
 20
-5.177277624690693
 30
0.0
 11
3.248941039028061
 21
-3.941660342798988
 31
0.0
  0
LINE
  5
15706
330
15596
100
AcDbEntity
  8
0
100
AcDbLine
 10
3.499824506016047
 20
0.0
 30
0.0
 11
3.499824506016047
 21
-0.715863759571926
 31
0.0
  0
ENDBLK
  5
15707
330
15596
100
AcDbEntity
  8
0
100
AcDbBlockEnd
  0
ENDSEC
  0
SECTION
  2
ENTITIES
  0
LINE
  5
1516E
330
18
100
AcDbEntity
  8
0
100
AcDbLine
 10
42.2597261469485
 20
15.39514734544749
 30
0.0
 11
42.2597261469485
 21
14.59750175944168
 31
0.0
  0
LINE
  5
1516F
330
18
100
AcDbEntity
  8
0
100
AcDbLine
 10
38.75990164093245
 20
15.39514734544749
 30
0.0
 11
38.75990164093245
 21
14.34501455159926
 31
0.0
  0
LINE
  5
15170
330
18
100
AcDbEntity
  8
0
100
AcDbLine
 10
42.2597261469485
 20
15.39514734544749
 30
0.0
 11
38.75990164093245
 21
15.39514734544749
 31
0.0
  0
LINE
  5
15171
330
18
100
AcDbEntity
  8
0
100
AcDbLine
 10
41.25881316377378
 20
10.14516972075679
 30
0.0
 11
42.25884267996051
 21
10.14516972075679
 31
0.0
  0
LWPOLYLINE
  5
151B6
330
18
100
AcDbEntity
  8
0
100
AcDbPolyline
 90
       65
 70
     0
 43
0.0
 10
42.2597261469485
 20
14.59750175944168
 10
42.22572682935246
 20
14.59627100515968
 10
41.95816935622583
 20
14.58594075465037
 10
41.73348644733564
 20
14.57658540790927
 10
41.54670025103395
 20
14.56809247618657
 10
41.39283291567287
 20
14.56034947073249
 10
41.26690658960447
 20
14.55324390279719
 10
41.16394342118084
 20
14.54666328363088
 10
41.07896555875409
 20
14.54049512448375
 10
41.00759341001691
 20
14.53463735220893
 10
40.94784042002474
 20
14.52902955607129
 10
40.89831829317361
 20
14.52362174093864
 10
40.8576387338596
 20
14.51836391167878
 10
40.82441344647873
 20
14.51320607315951
 10
40.79725413542706
 20
14.50809823024864
 10
40.77477250510068
 20
14.50299038781399
 10
40.7555802598956
 20
14.49783255072335
 10
40.73848504981486
 20
14.49257264067103
 10
40.72307830728931
 20
14.48715024665734
 10
40.70914741035674
 20
14.48150287450909
 10
40.69647973705499
 20
14.4755680300531
 10
40.68486266542185
 20
14.46928321911617
 10
40.67408357349514
 20
14.46258594752511
 10
40.66392983931267
 20
14.45541372110674
 10
40.65418884091225
 20
14.44770404568787
 10
40.64468964694653
 20
14.43923819217823
 10
40.63542808852763
 20
14.42917249181922
 10
40.62644168738247
 20
14.41650704093518
 10
40.61776796523801
 20
14.40024193585045
 10
40.60944444382118
 20
14.37937727288935
 10
40.60150864485893
 20
14.3529131483762
 10
40.59399809007821
 20
14.31984965863535
 10
40.58695030120597
 20
14.27918689999113
 10
40.5804048844238
 20
14.23039992305282
 10
40.57440978373201
 20
14.1748635955696
 10
40.56901502758558
 20
14.11442773957558
 10
40.56427064443943
 20
14.05094217710488
 10
40.56022666274857
 20
13.98625673019163
 10
40.55693311096795
 20
13.92222122086996
 10
40.55444001755253
 20
13.86068547117398
 10
40.55279741095728
 20
13.80349930313782
 10
40.55204906612315
 20
13.75206674834437
 10
40.55221374393504
 20
13.70600867657156
 10
40.55330395176385
 20
13.66450016714609
 10
40.55533219698044
 20
13.62671629939464
 10
40.55831098695573
 20
13.59183215264391
 10
40.56225282906059
 20
13.55902280622061
 10
40.56717023066592
 20
13.52746333945141
 10
40.57307569914259
 20
13.49632883166303
 10
40.58034444961717
 20
13.46452876271993
 10
40.59080252823885
 20
13.42991021463774
 10
40.60663868891249
 20
13.39005466996986
 10
40.63004168554297
 20
13.34254361126971
 10
40.66320027203513
 20
13.28495852109069
 10
40.70830320229385
 20
13.21488088198621
 10
40.76753923022399
 20
13.12989217650968
 10
40.8430971097304
 20
13.0275738872145
 10
40.93719060905257
 20
12.90556582437445
 10
41.05213355376853
 20
12.76174110914476
 10
41.19026478379086
 20
12.59403119040105
 10
41.35392313903223
 20
12.40036751701892
 10
41.54544745940523
 20
12.17868153787399
 10
41.7671765848225
 20
11.92690470184184
 10
42.02144935519666
 20
11.64296845779811
 10
42.2597261469485
 20
11.3807870026485
  0
LINE
  5
1557D
330
18
100
AcDbEntity
  8
0
100
AcDbLine
 10
35.65951593082923
 20
10.14516972075679
 30
0.0
 11
35.65951593082923
 21
15.39514734544749
 31
0.0
  0
LINE
  5
1557E
330
18
100
AcDbEntity
  8
0
100
AcDbLine
 10
11.65951593082923
 20
10.14516972075679
 30
0.0
 11
11.65951593082923
 21
15.39514734544749
 31
0.0
  0
LINE
  5
15584
330
18
100
AcDbEntity
  8
0
100
AcDbLine
 10
35.65951593082923
 20
10.14516972075679
 30
0.0
 11
11.65951593082923
 21
10.14516972075679
 31
0.0
  0
LINE
  5
15586
330
18
100
AcDbEntity
  8
0
100
AcDbLine
 10
35.65951593082923
 20
14.34608779386485
 30
0.0
 11
11.65951593082923
 21
14.34608779386485
 31
0.0
  0
LINE
  5
15588
330
18
100
AcDbEntity
  8
0
100
AcDbLine
 10
35.65951593082923
 20
12.26171442131565
 30
0.0
 11
11.65951593082923
 21
12.26171442131565
 31
0.0
  0
LINE
  5
15753
330
18
100
AcDbEntity
  8
0
100
AcDbLine
 10
41.25881316377378
 20
10.14516972075679
 30
0.0
 11
41.25881316377378
 21
10.33266972075679
 31
0.0
  0
LINE
  5
15757
330
18
100
AcDbEntity
  8
0
100
AcDbLine
 10
41.25881316377378
 20
11.08266972075679
 30
0.0
 11
41.25881316377378
 21
11.27016972075679
 31
0.0
  0
ARC
  5
15759
330
18
100
AcDbEntity
  8
0
100
AcDbCircle
 10
41.33568625163298
 20
10.7076697207568
 30
0.0
 40
0.3827982126878491
100
AcDbArc
 50
101.5848458535722
 51
258.415154146428
  0
LINE
  5
1575A
330
18
100
AcDbEntity
  8
0
100
AcDbLine
 10
42.2597261469485
 20
15.39514734544749
 30
0.0
 11
38.7597261469485
 21
15.39514734544749
 31
0.0
  0
LINE
  5
1575B
330
18
100
AcDbEntity
  8
0
100
AcDbLine
 10
38.7597261469485
 20
15.39514734544749
 30
0.0
 11
38.7597261469485
 21
14.32244734544749
 31
0.0
  0
LINE
  5
1575F
330
18
100
AcDbEntity
  8
0
100
AcDbLine
 10
42.2597261469485
 20
15.39514734544749
 30
0.0
 11
40.5097261469485
 21
15.39514734544749
 31
0.0
  0
SPLINE
  5
15762
330
18
100
AcDbEntity
  8
0
100
AcDbSpline
210
0.0
220
0.0
230
1.0
 70
     8
 71
     3
 72
    11
 73
     7
 74
     5
 42
0.0000000001
 43
0.0000000001
 44
0.0000000001
 40
0.0
 40
0.0
 40
0.0
 40
0.0
 40
0.6645042763264125
 40
1.497307397878584
 40
2.152801910820616
 40
2.801729584574741
 40
2.801729584574741
 40
2.801729584574741
 40
2.801729584574741
 10
38.7597261469485
 20
14.32244734544749
 30
0.0
 10
38.96689605912608
 20
14.22111409332023
 30
0.0
 10
39.43370575948828
 20
13.99278293960661
 30
0.0
 10
39.65152765503053
 20
13.26554598923938
 30
0.0
 10
39.91470541164691
 20
12.57772360300585
 30
0.0
 10
40.3120526889507
 20
12.36551666089214
 30
0.0
 10
40.5097261469485
 20
12.25994734544749
 30
0.0
 11
38.7597261469485
 21
14.32244734544749
 31
0.0
 11
39.31913282783341
 21
13.96379696047988
 31
0.0
 11
39.67970108755866
 21
13.21309624158736
 31
0.0
 11
39.97529162011779
 21
12.62803274626525
 31
0.0
 11
40.5097261469485
 21
12.25994734544749
 31
0.0
  0
LINE
  5
15763
330
18
100
AcDbEntity
  8
0
100
AcDbLine
 10
41.25881316377378
 20
11.27016972075679
 30
0.0
 11
41.00881316377377
 21
11.27016972075679
 31
0.0
  0
LINE
  5
15764
330
18
100
AcDbEntity
  8
0
100
AcDbLine
 10
40.5097261469485
 20
12.25994734544749
 30
0.0
 11
40.5097261469485
 21
11.94744734544749
 31
0.0
  0
ARC
  5
15765
330
18
100
AcDbEntity
  8
0
100
AcDbCircle
 10
40.3356970528145
 20
11.29667717233194
 30
0.0
 40
0.6736378432228634
100
AcDbArc
 50
357.7448456436402
 51
75.02828209930729
  0
LINE
  5
157A3
330
18
100
AcDbEntity
  8
0
100
AcDbLine
 10
42.2597261469485
 20
11.3807870026485
 30
0.0
 11
42.2597261469485
 21
10.14516972075679
 31
0.0
  0
LINE
  5
157BA
330
18
100
AcDbEntity
  8
0
100
AcDbLine
 10
35.65951593082923
 20
11.94744734544749
 30
0.0
 11
11.65951593082923
 21
11.94744734544749
 31
0.0
  0
LINE
  5
157BC
330
18
100
AcDbEntity
  8
0
100
AcDbLine
 10
35.65951593082923
 20
11.27016972075679
 30
0.0
 11
11.65951593082923
 21
11.27016972075679
 31
0.0
  0
LINE
  5
157BD
330
18
100
AcDbEntity
  8
0
100
AcDbLine
 10
35.65951593082923
 20
11.08266972075679
 30
0.0
 11
11.65951593082923
 21
11.08266972075679
 31
0.0
  0
LINE
  5
157BE
330
18
100
AcDbEntity
  8
0
100
AcDbLine
 10
35.65951593082923
 20
10.33266972075679
 30
0.0
 11
11.65951593082923
 21
10.33266972075679
 31
0.0
  0
LINE
  5
157CE
330
18
100
AcDbEntity
  8
0
100
AcDbLine
 10
35.65951593082923
 20
15.39514734544749
 30
0.0
 11
11.65951593082923
 21
15.39514734544749
 31
0.0
  0
ENDSEC
  0
SECTION
  2
OBJECTS
  0
DICTIONARY
  5
C
330
0
100
AcDbDictionary
281
     1
  3
ACAD_COLOR
350
15711
  3
ACAD_GROUP
350
D
  3
ACAD_IMAGE_DICT
350
21
  3
ACAD_IMAGE_VARS
350
20
  3
ACAD_LAYOUT
350
15712
  3
ACAD_MATERIAL
350
15710
  3
ACAD_MLINESTYLE
350
1B
  3
ACAD_PLOTSETTINGS
350
15713
  3
ACAD_PLOTSTYLENAME
350
1570E
  0
DICTIONARY
  5
15711
102
{ACAD_REACTORS
330
C
102
}
330
C
100
AcDbDictionary
281
     1
  0
DICTIONARY
  5
D
102
{ACAD_REACTORS
330
C
102
}
330
C
100
AcDbDictionary
281
     1
  0
DICTIONARY
  5
21
102
{ACAD_REACTORS
330
C
102
}
330
C
100
AcDbDictionary
281
     1
  3
6111
350
14E15
  0
RASTERVARIABLES
  5
20
102
{ACAD_REACTORS
330
C
102
}
330
C
100
AcDbRasterVariables
 90
        0
 70
     1
 71
     1
 72
     0
  0
DICTIONARY
  5
15712
102
{ACAD_REACTORS
330
C
102
}
330
C
100
AcDbDictionary
281
     1
  3
Layout1
350
15715
  3
Model
350
15714
  0
DICTIONARY
  5
15710
102
{ACAD_REACTORS
330
C
102
}
330
C
100
AcDbDictionary
281
     1
  0
DICTIONARY
  5
1B
102
{ACAD_REACTORS
330
C
102
}
330
C
100
AcDbDictionary
281
     1
  3
STANDARD
350
1C
  0
DICTIONARY
  5
15713
102
{ACAD_REACTORS
330
C
102
}
330
C
100
AcDbDictionary
281
     1
  0
ACDBDICTIONARYWDFLT
  5
1570E
102
{ACAD_REACTORS
330
C
102
}
330
C
100
AcDbDictionary
281
     1
  3
Normal
350
1570F
100
AcDbDictionaryWithDefault
340
1570F
  0
IMAGEDEF
  5
14E15
102
{ACAD_REACTORS
330
21
102
}
330
21
100
AcDbRasterImageDef
 90
        0
  1
U:\TPDWG\MichelQ\6111.tif
 10
3060.0
 20
3718.0
 11
0.0705555555555556
 21
0.0705555555555556
280
     1
281
     5
  0
LAYOUT
  5
15715
102
{ACAD_REACTORS
330
15712
102
}
330
15712
100
AcDbPlotSettings
  1

  2
None
  4

  6

 40
0.0
 41
0.0
 42
0.0
 43
0.0
 44
0.0
 45
0.0
 46
0.0
 47
0.0
 48
0.0
 49
0.0
140
0.0
141
0.0
142
1.0
143
1.0
 70
   688
 72
     0
 73
     0
 74
     5
  7

 75
    16
147
1.0
 76
     0
 77
     2
 78
   300
148
0.0
149
0.0
100
AcDbLayout
  1
Layout1
 70
     1
 71
     1
 10
0.0
 20
0.0
 11
12.0
 21
9.0
 12
0.0
 22
0.0
 32
0.0
 14
1.000000000000000E+20
 24
1.000000000000000E+20
 34
1.000000000000000E+20
 15
-1.000000000000000E+20
 25
-1.000000000000000E+20
 35
-1.000000000000000E+20
146
0.0
 13
0.0
 23
0.0
 33
0.0
 16
1.0
 26
0.0
 36
0.0
 17
0.0
 27
1.0
 37
0.0
 76
     0
330
15
  0
LAYOUT
  5
15714
102
{ACAD_REACTORS
330
15712
102
}
330
15712
100
AcDbPlotSettings
  1

  2
None
  4

  6

 40
0.0
 41
0.0
 42
0.0
 43
0.0
 44
0.0
 45
0.0
 46
0.0
 47
0.0
 48
0.0
 49
0.0
140
0.0
141
0.0
142
1.0
143
1.0
 70
  1712
 72
     0
 73
     0
 74
     0
  7

 75
     0
147
1.0
 76
     0
 77
     2
 78
   300
148
0.0
149
0.0
100
AcDbLayout
  1
Model
 70
     1
 71
     0
 10
0.0
 20
0.0
 11
12.0
 21
9.0
 12
0.0
 22
0.0
 32
0.0
 14
0.0
 24
0.0
 34
0.0
 15
0.0
 25
0.0
 35
0.0
146
0.0
 13
0.0
 23
0.0
 33
0.0
 16
1.0
 26
0.0
 36
0.0
 17
0.0
 27
1.0
 37
0.0
 76
     0
330
18
  0
MLINESTYLE
  5
1C
102
{ACAD_REACTORS
330
1B
102
}
330
1B
100
AcDbMlineStyle
  2
STANDARD
 70
     0
  3

 62
   256
 51
90.0
 52
90.0
 71
     2
 49
0.5
 62
   256
  6
BYLAYER
 49
-0.5
 62
   256
  6
BYLAYER
  0
ACDBPLACEHOLDER
  5
1570F
102
{ACAD_REACTORS
330
1570E
102
}
330
1570E
  0
ENDSEC
  0
EOF
