  0
SECTION
  2
HEADER
  9
$ACADVER
  1
AC1018
  9
$ACADMAINTVER
 70
     0
  9
$DWGCODEPAGE
  3
ANSI_1252
  9
$INSBASE
 10
0.0
 20
0.0
 30
0.0
  9
$EXTMIN
 10
48.03930169393349
 20
43.13881484874593
 30
0.0
  9
$EXTMAX
 10
50.71607838923013
 20
48.16811875214543
 30
0.0
  9
$LIMMIN
 10
0.0
 20
0.0
  9
$LIMMAX
 10
12.0
 20
9.0
  9
$ORTHOMODE
 70
     0
  9
$REGENMODE
 70
     1
  9
$FILLMODE
 70
     1
  9
$QTEXTMODE
 70
     0
  9
$MIRRTEXT
 70
     1
  9
$LTSCALE
 40
1.0
  9
$ATTMODE
 70
     1
  9
$TEXTSIZE
 40
0.2
  9
$TRACEWID
 40
0.05
  9
$TEXTSTYLE
  7
STANDARD
  9
$CLAYER
  8
0
  9
$CELTYPE
  6
BYLAYER
  9
$CECOLOR
 62
   256
  9
$CELTSCALE
 40
1.0
  9
$DISPSILH
 70
     0
  9
$DIMSCALE
 40
1.0
  9
$DIMASZ
 40
0.18
  9
$DIMEXO
 40
0.0625
  9
$DIMDLI
 40
0.38
  9
$DIMRND
 40
0.0
  9
$DIMDLE
 40
0.0
  9
$DIMEXE
 40
0.18
  9
$DIMTP
 40
0.0
  9
$DIMTM
 40
0.0
  9
$DIMTXT
 40
1.5
  9
$DIMCEN
 40
0.09
  9
$DIMTSZ
 40
0.0
  9
$DIMTOL
 70
     0
  9
$DIMLIM
 70
     0
  9
$DIMTIH
 70
     1
  9
$DIMTOH
 70
     1
  9
$DIMSE1
 70
     0
  9
$DIMSE2
 70
     0
  9
$DIMTAD
 70
     0
  9
$DIMZIN
 70
     0
  9
$DIMBLK
  1

  9
$DIMASO
 70
     1
  9
$DIMSHO
 70
     1
  9
$DIMPOST
  1

  9
$DIMAPOST
  1

  9
$DIMALT
 70
     0
  9
$DIMALTD
 70
     2
  9
$DIMALTF
 40
25.4
  9
$DIMLFAC
 40
1.0
  9
$DIMTOFL
 70
     0
  9
$DIMTVP
 40
0.0
  9
$DIMTIX
 70
     0
  9
$DIMSOXD
 70
     0
  9
$DIMSAH
 70
     0
  9
$DIMBLK1
  1

  9
$DIMBLK2
  1

  9
$DIMSTYLE
  2
STANDARD
  9
$DIMCLRD
 70
     0
  9
$DIMCLRE
 70
     0
  9
$DIMCLRT
 70
     0
  9
$DIMTFAC
 40
1.0
  9
$DIMGAP
 40
0.09
  9
$DIMJUST
 70
     0
  9
$DIMSD1
 70
     0
  9
$DIMSD2
 70
     0
  9
$DIMTOLJ
 70
     1
  9
$DIMTZIN
 70
     0
  9
$DIMALTZ
 70
     0
  9
$DIMALTTZ
 70
     0
  9
$DIMUPT
 70
     0
  9
$DIMDEC
 70
     4
  9
$DIMTDEC
 70
     4
  9
$DIMALTU
 70
     2
  9
$DIMALTTD
 70
     2
  9
$DIMTXSTY
  7
STANDARD
  9
$DIMAUNIT
 70
     0
  9
$DIMADEC
 70
     0
  9
$DIMALTRND
 40
0.0
  9
$DIMAZIN
 70
     0
  9
$DIMDSEP
 70
    46
  9
$DIMATFIT
 70
     3
  9
$DIMFRAC
 70
     0
  9
$DIMLDRBLK
  1

  9
$DIMLUNIT
 70
     2
  9
$DIMLWD
 70
    -2
  9
$DIMLWE
 70
    -2
  9
$DIMTMOVE
 70
     0
  9
$LUNITS
 70
     4
  9
$LUPREC
 70
     4
  9
$SKETCHINC
 40
0.1
  9
$FILLETRAD
 40
0.125
  9
$AUNITS
 70
     0
  9
$AUPREC
 70
     0
  9
$MENU
  1
.
  9
$ELEVATION
 40
0.0
  9
$PELEVATION
 40
0.0
  9
$THICKNESS
 40
0.0
  9
$LIMCHECK
 70
     0
  9
$CHAMFERA
 40
0.5
  9
$CHAMFERB
 40
0.5
  9
$CHAMFERC
 40
1.0
  9
$CHAMFERD
 40
0.0
  9
$SKPOLY
 70
     0
  9
$TDCREATE
 40
2451160.318790972
  9
$TDUCREATE
 40
2451160.485457639
  9
$TDUPDATE
 40
2453488.685594155
  9
$TDUUPDATE
 40
2453488.852260822
  9
$TDINDWG
 40
0.4885374537
  9
$TDUSRTIMER
 40
0.4885374537
  9
$USRTIMER
 70
     1
  9
$ANGBASE
 50
0.0
  9
$ANGDIR
 70
     0
  9
$PDMODE
 70
     3
  9
$PDSIZE
 40
1.0
  9
$PLINEWID
 40
0.0
  9
$SPLFRAME
 70
     0
  9
$SPLINETYPE
 70
     6
  9
$SPLINESEGS
 70
     8
  9
$HANDSEED
  5
139EC
  9
$SURFTAB1
 70
     6
  9
$SURFTAB2
 70
     6
  9
$SURFTYPE
 70
     6
  9
$SURFU
 70
     6
  9
$SURFV
 70
     6
  9
$UCSBASE
  2

  9
$UCSNAME
  2

  9
$UCSORG
 10
0.0
 20
0.0
 30
0.0
  9
$UCSXDIR
 10
1.0
 20
0.0
 30
0.0
  9
$UCSYDIR
 10
0.0
 20
1.0
 30
0.0
  9
$UCSORTHOREF
  2

  9
$UCSORTHOVIEW
 70
     0
  9
$UCSORGTOP
 10
0.0
 20
0.0
 30
0.0
  9
$UCSORGBOTTOM
 10
0.0
 20
0.0
 30
0.0
  9
$UCSORGLEFT
 10
0.0
 20
0.0
 30
0.0
  9
$UCSORGRIGHT
 10
0.0
 20
0.0
 30
0.0
  9
$UCSORGFRONT
 10
0.0
 20
0.0
 30
0.0
  9
$UCSORGBACK
 10
0.0
 20
0.0
 30
0.0
  9
$PUCSBASE
  2

  9
$PUCSNAME
  2

  9
$PUCSORG
 10
0.0
 20
0.0
 30
0.0
  9
$PUCSXDIR
 10
1.0
 20
0.0
 30
0.0
  9
$PUCSYDIR
 10
0.0
 20
1.0
 30
0.0
  9
$PUCSORTHOREF
  2

  9
$PUCSORTHOVIEW
 70
     0
  9
$PUCSORGTOP
 10
0.0
 20
0.0
 30
0.0
  9
$PUCSORGBOTTOM
 10
0.0
 20
0.0
 30
0.0
  9
$PUCSORGLEFT
 10
0.0
 20
0.0
 30
0.0
  9
$PUCSORGRIGHT
 10
0.0
 20
0.0
 30
0.0
  9
$PUCSORGFRONT
 10
0.0
 20
0.0
 30
0.0
  9
$PUCSORGBACK
 10
0.0
 20
0.0
 30
0.0
  9
$USERI1
 70
     0
  9
$USERI2
 70
     0
  9
$USERI3
 70
     0
  9
$USERI4
 70
     0
  9
$USERI5
 70
     0
  9
$USERR1
 40
0.0
  9
$USERR2
 40
0.0
  9
$USERR3
 40
0.0
  9
$USERR4
 40
0.0
  9
$USERR5
 40
0.0
  9
$WORLDVIEW
 70
     1
  9
$SHADEDGE
 70
     3
  9
$SHADEDIF
 70
    70
  9
$TILEMODE
 70
     1
  9
$MAXACTVP
 70
    48
  9
$PINSBASE
 10
0.0
 20
0.0
 30
0.0
  9
$PLIMCHECK
 70
     0
  9
$PEXTMIN
 10
1.049636599258096
 20
0.7996597240971113
 30
-0.0000000349181948
  9
$PEXTMAX
 10
9.450362731076971
 20
7.200340082697458
 30
0.0000000814935746
  9
$PLIMMIN
 10
-0.2500002402958907
 20
-0.2499999962453767
  9
$PLIMMAX
 10
10.74999951940821
 20
8.249999763458731
  9
$UNITMODE
 70
     0
  9
$VISRETAIN
 70
     1
  9
$PLINEGEN
 70
     0
  9
$PSLTSCALE
 70
     1
  9
$TREEDEPTH
 70
  3020
  9
$CMLSTYLE
  2
STANDARD
  9
$CMLJUST
 70
     0
  9
$CMLSCALE
 40
1.0
  9
$PROXYGRAPHICS
 70
     1
  9
$MEASUREMENT
 70
     0
  9
$CELWEIGHT
370
    -1
  9
$ENDCAPS
280
     0
  9
$JOINSTYLE
280
     0
  9
$LWDISPLAY
290
     0
  9
$INSUNITS
 70
     0
  9
$HYPERLINKBASE
  1

  9
$STYLESHEET
  1

  9
$XEDIT
290
     1
  9
$CEPSNTYPE
380
     0
  9
$PSTYLEMODE
290
     1
  9
$FINGERPRINTGUID
  2
{34D3F2BE-63CA-4CAB-AD30-94E3E20FEB6B}
  9
$VERSIONGUID
  2
{434E6D3E-E57E-458B-B36C-30A29EAA732C}
  9
$EXTNAMES
290
     1
  9
$PSVPSCALE
 40
0.0
  9
$OLESTARTUP
290
     0
  9
$SORTENTS
280
   127
  9
$INDEXCTL
280
     0
  9
$HIDETEXT
280
     0
  9
$XCLIPFRAME
290
     0
  9
$HALOGAP
280
     0
  9
$OBSCOLOR
 70
   257
  9
$OBSLTYPE
280
     0
  9
$INTERSECTIONDISPLAY
280
     0
  9
$INTERSECTIONCOLOR
 70
   257
  9
$DIMASSOC
280
     1
  9
$PROJECTNAME
  1

  0
ENDSEC
  0
SECTION
  2
CLASSES
  0
CLASS
  1
RASTERVARIABLES
  2
AcDbRasterVariables
  3
ISM
 90
        0
 91
        1
280
     0
281
     0
  0
CLASS
  1
IMAGEDEF
  2
AcDbRasterImageDef
  3
ISM
 90
        0
 91
        5
280
     0
281
     0
  0
CLASS
  1
IMAGEDEF_REACTOR
  2
AcDbRasterImageDefReactor
  3
ISM
 90
        1
 91
        0
280
     0
281
     0
  0
CLASS
  1
IMAGE
  2
AcDbRasterImage
  3
ISM
 90
      127
 91
        0
280
     0
281
     1
  0
CLASS
  1
ACDBDICTIONARYWDFLT
  2
AcDbDictionaryWithDefault
  3
ObjectDBX Classes
 90
        0
 91
        1
280
     0
281
     0
  0
ENDSEC
  0
SECTION
  2
TABLES
  0
TABLE
  2
VPORT
  5
8
330
0
100
AcDbSymbolTable
 70
     4
  0
VPORT
  5
139EB
330
8
100
AcDbSymbolTableRecord
100
AcDbViewportTableRecord
  2
*Active
 70
     0
 10
0.0
 20
0.0
 11
1.0
 21
1.0
 12
49.44786654225658
 22
45.35498054068045
 13
0.0
 23
0.0
 14
0.5
 24
0.5
 15
0.5
 25
0.5
 16
0.0
 26
0.0
 36
1.0
 17
0.0
 27
0.0
 37
0.0
 40
6.537774705536264
 41
1.977142857142857
 42
50.0
 43
0.0
 44
0.0
 50
0.0
 51
0.0
 71
     0
 72
   100
 73
     1
 74
     0
 75
     0
 76
     0
 77
     0
 78
     0
281
     0
 65
     1
110
0.0
120
0.0
130
0.0
111
1.0
121
0.0
131
0.0
112
0.0
122
1.0
132
0.0
 79
     0
146
0.0
  0
ENDTAB
  0
TABLE
  2
LTYPE
  5
5
330
0
100
AcDbSymbolTable
 70
     1
  0
LTYPE
  5
12
330
5
100
AcDbSymbolTableRecord
100
AcDbLinetypeTableRecord
  2
BYBLOCK
 70
     0
  3

 72
    65
 73
     0
 40
0.0
  0
LTYPE
  5
13
330
5
100
AcDbSymbolTableRecord
100
AcDbLinetypeTableRecord
  2
BYLAYER
 70
     0
  3

 72
    65
 73
     0
 40
0.0
  0
LTYPE
  5
14
330
5
100
AcDbSymbolTableRecord
100
AcDbLinetypeTableRecord
  2
CONTINUOUS
 70
     0
  3
Solid line
 72
    65
 73
     0
 40
0.0
  0
ENDTAB
  0
TABLE
  2
LAYER
  5
2
330
0
100
AcDbSymbolTable
 70
     2
  0
LAYER
  5
E
330
2
100
AcDbSymbolTableRecord
100
AcDbLayerTableRecord
  2
0
 70
     0
 62
     7
  6
CONTINUOUS
370
    -3
390
13123
  0
LAYER
  5
1312D
330
2
100
AcDbSymbolTableRecord
100
AcDbLayerTableRecord
  2
Defpoints
 70
     0
 62
     7
  6
CONTINUOUS
290
     0
370
    -3
390
13123
  0
ENDTAB
  0
TABLE
  2
STYLE
  5
3
330
0
100
AcDbSymbolTable
 70
     1
  0
STYLE
  5
F
330
3
100
AcDbSymbolTableRecord
100
AcDbTextStyleTableRecord
  2
STANDARD
 70
     0
 40
0.0
 41
1.0
 50
0.0
 71
     0
 42
0.2
  3
txt
  4

  0
ENDTAB
  0
TABLE
  2
VIEW
  5
6
330
0
100
AcDbSymbolTable
 70
     0
  0
ENDTAB
  0
TABLE
  2
UCS
  5
7
330
0
100
AcDbSymbolTable
 70
     0
  0
ENDTAB
  0
TABLE
  2
APPID
  5
9
330
0
100
AcDbSymbolTable
 70
     1
  0
APPID
  5
10
330
9
100
AcDbSymbolTableRecord
100
AcDbRegAppTableRecord
  2
ACAD
 70
     0
  0
ENDTAB
  0
TABLE
  2
DIMSTYLE
  5
A
330
0
100
AcDbSymbolTable
 70
     1
100
AcDbDimStyleTable
 71
     1
340
1D
  0
DIMSTYLE
105
1D
330
A
100
AcDbSymbolTableRecord
100
AcDbDimStyleTableRecord
  2
STANDARD
 70
     0
140
1.5
340
F
  0
ENDTAB
  0
TABLE
  2
BLOCK_RECORD
  5
1
330
0
100
AcDbSymbolTable
 70
     2
  0
BLOCK_RECORD
  5
18
330
1
100
AcDbSymbolTableRecord
100
AcDbBlockTableRecord
  2
*MODEL_SPACE
340
13128
  0
BLOCK_RECORD
  5
15
330
1
100
AcDbSymbolTableRecord
100
AcDbBlockTableRecord
  2
*PAPER_SPACE
340
13129
  0
BLOCK_RECORD
  5
124BD
330
1
100
AcDbSymbolTableRecord
100
AcDbBlockTableRecord
  2
3316_E
340
0
  0
BLOCK_RECORD
  5
12F0E
330
1
100
AcDbSymbolTableRecord
100
AcDbBlockTableRecord
  2
3316_C
340
0
  0
ENDTAB
  0
ENDSEC
  0
SECTION
  2
BLOCKS
  0
BLOCK
  5
19
330
18
100
AcDbEntity
  8
0
100
AcDbBlockBegin
  2
*MODEL_SPACE
 70
     0
 10
0.0
 20
0.0
 30
0.0
  3
*MODEL_SPACE
  1

  0
ENDBLK
  5
1A
330
18
100
AcDbEntity
  8
0
100
AcDbBlockEnd
  0
BLOCK
  5
16
330
15
100
AcDbEntity
 67
     1
  8
0
100
AcDbBlockBegin
  2
*PAPER_SPACE
 70
     0
 10
0.0
 20
0.0
 30
0.0
  3
*PAPER_SPACE
  1

  0
ENDBLK
  5
17
330
15
100
AcDbEntity
 67
     1
  8
0
100
AcDbBlockEnd
  0
BLOCK
  5
124BE
330
124BD
100
AcDbEntity
  8
0
100
AcDbBlockBegin
  2
3316_E
 70
     0
 10
0.0
 20
0.0
 30
0.0
  3
3316_E
  1

  0
LINE
  5
124BF
330
124BD
100
AcDbEntity
  8
0
100
AcDbLine
 10
4.606800233264594
 20
-8.606536724284307
 30
0.0
 11
4.643160179840107
 21
-8.579240282047702
 31
0.0
  0
LINE
  5
124C0
330
124BD
100
AcDbEntity
  8
0
100
AcDbLine
 10
4.62416033214877
 20
-7.6934697706019
 30
0.0
 11
4.568672684097482
 21
-7.705524551344369
 31
0.0
  0
LINE
  5
124C1
330
124BD
100
AcDbEntity
  8
0
100
AcDbLine
 10
4.665735282068503
 20
-10.18533073742196
 30
0.0
 11
4.585413938968919
 21
-10.23663525240808
 31
0.0
  0
LINE
  5
124C2
330
124BD
100
AcDbEntity
  8
0
100
AcDbLine
 10
4.668481406043097
 20
-11.00680628472157
 30
0.0
 11
4.575446612354188
 21
-11.07477587685398
 31
0.0
  0
LWPOLYLINE
  5
124C3
330
124BD
100
AcDbEntity
  8
0
100
AcDbPolyline
 90
      561
 70
     0
 43
0.0
 10
11.48365439092445
 20
-5.211480907924955
 10
11.45541694419825
 20
-5.210677090551549
 10
11.42943265120961
 20
-5.208344833411218
 10
11.40554567463398
 20
-5.204602928973815
 10
11.38360017714678
 20
-5.199570169709187
 10
11.36344032142345
 20
-5.193365348087188
 10
11.34491027013942
 20
-5.186107256577659
 10
11.32785418597012
 20
-5.17791468765045
 10
11.31211623159098
 20
-5.16890643377541
 10
11.29755113372955
 20
-5.159181928362696
 10
11.28405587532172
 20
-5.14876316858371
 10
11.27153800335552
 20
-5.137652792550157
 10
11.25990506481895
 20
-5.125853438373746
 10
11.24906460670002
 20
-5.113367744166184
 10
11.23892417598676
 20
-5.100198348039183
 10
11.22939131966717
 20
-5.086347888104453
 10
11.22037358472925
 20
-5.071819002473701
 10
11.21178335962284
 20
-5.056602450741187
 10
11.20355239864495
 20
-5.040641478431362
 10
11.1956172975544
 20
-5.023867452551255
 10
11.18791465211004
 20
-5.00621174010786
 10
11.18038105807068
 20
-4.987605708108188
 10
11.17295311119515
 20
-4.967980723559256
 10
11.16556740724229
 20
-4.947268153468077
 10
11.15816054197092
 20
-4.925399364841649
 10
11.15069376802843
 20
-4.902366439136003
 10
11.14322696561653
 20
-4.878404315603177
 10
11.13584467182548
 20
-4.85380864794422
 10
11.12863142374556
 20
-4.828875089860194
 10
11.12167175846702
 20
-4.803899295052146
 10
11.11505021308015
 20
-4.779176917221133
 10
11.10885132467521
 20
-4.755003610068201
 10
11.10315963034245
 20
-4.731675027294412
 10
11.098017400525
 20
-4.709392671025882
 10
11.09329783907722
 20
-4.687981437089004
 10
11.08883188320639
 20
-4.667172069735236
 10
11.0844504701197
 20
-4.64669531321604
 10
11.07998453702439
 20
-4.626281911782872
 10
11.07526502112769
 20
-4.605662609687201
 10
11.07012285963683
 20
-4.584568151180472
 10
11.06438898975905
 20
-4.562729280514155
 10
11.0578891796042
 20
-4.539907432084821
 10
11.05042852089274
 20
-4.515986800869471
 10
11.04180693624775
 20
-4.490882271990227
 10
11.03182434829233
 20
-4.464508730569218
 10
11.02028067964957
 20
-4.436781061728551
 10
11.00697585294255
 20
-4.407614150590357
 10
10.99170979079436
 20
-4.376922882276743
 10
10.97428241582809
 20
-4.344622141909835
 10
10.95452457509782
 20
-4.31070460916456
 10
10.93239081338152
 20
-4.275474141927058
 10
10.9078665998882
 20
-4.239312392636281
 10
10.8809374038268
 20
-4.202601013731183
 10
10.8515886944063
 20
-4.165721657650702
 10
10.8198059408357
 20
-4.129055976833801
 10
10.78557461232395
 20
-4.092985623719424
 10
10.74888017808003
 20
-4.057892250746523
 10
10.70972837991109
 20
-4.024098177251979
 10
10.668206050017
 20
-3.991688390164417
 10
10.6244202931958
 20
-3.96068854331039
 10
10.57847821424552
 20
-3.931124290516451
 10
10.53048691796421
 20
-3.903021285609159
 10
10.48055350914991
 20
-3.876405182415067
 10
10.42878509260066
 20
-3.851301634760733
 10
10.37528877311451
 20
-3.827736296472708
 10
10.32019222891451
 20
-3.805743345155204
 10
10.26370543192386
 20
-3.785391053523025
 10
10.20605892749078
 20
-3.76675621806864
 10
10.14748326096349
 20
-3.749915635284504
 10
10.08820897769022
 20
-3.734946101663083
 10
10.02846662301917
 20
-3.72192441369684
 10
9.968486742298571
 20
-3.710927367878231
 10
9.90849988087664
 20
-3.702031760699725
 10
9.84871329611755
 20
-3.695295771194731
 10
9.789241093449254
 20
-3.690703108560478
 10
9.730174090315676
 20
-3.688218864535146
 10
9.671603104160737
 20
-3.687808130856917
 10
9.613618952428341
 20
-3.68943599926396
 10
9.556312452562403
 20
-3.693067561494461
 10
9.499774422006849
 20
-3.698667909286603
 10
9.444095678205574
 20
-3.706202134378565
 10
9.389368546532695
 20
-3.715620005181729
 10
9.335691384083018
 20
-3.72680999680031
 10
9.283164055881558
 20
-3.739645261011738
 10
9.23188642695332
 20
-3.753998949593436
 10
9.181958362323296
 20
-3.769744214322822
 10
9.133479727016499
 20
-3.78675420697733
 10
9.086550386057931
 20
-3.804902079334376
 10
9.041270204472603
 20
-3.824060983171389
 10
8.997690366952914
 20
-3.844164576797251
 10
8.955667336860905
 20
-3.865388544646685
 10
8.915008897226025
 20
-3.887969077685878
 10
8.875522831077709
 20
-3.912142366881007
 10
8.837016921445405
 20
-3.938144603198268
 10
8.799298951358553
 20
-3.966211977603834
 10
8.76217670384659
 20
-3.99658068106389
 10
8.725457961938968
 20
-4.029486904544623
 10
8.68902541265327
 20
-4.065125783293532
 10
8.653061358959682
 20
-4.103528229683395
 10
8.617823007816511
 20
-4.144684100368292
 10
8.583567566182088
 20
-4.188583252002318
 10
8.550552241014724
 20
-4.23521554123956
 10
8.51903423927275
 20
-4.284570824734104
 10
8.489270767914492
 20
-4.336638959140047
 10
8.461519033898253
 20
-4.391409801111472
 10
8.435984513351625
 20
-4.44879518378783
 10
8.412665759079173
 20
-4.508394846250024
 10
8.391509593054726
 20
-4.569730504064305
 10
8.37246283725212
 20
-4.632323872796939
 10
8.355472313645178
 20
-4.695696668014192
 10
8.340484844207725
 20
-4.759370605282312
 10
8.327447250913596
 20
-4.822867400167564
 10
8.316306355736626
 20
-4.885708768236214
 10
8.30698091407474
 20
-4.947540425003105
 10
8.299277415022331
 20
-5.0085040857775
 10
8.292974281097901
 20
-5.068865465817222
 10
8.287849934819943
 20
-5.128890280380137
 10
8.283682798706967
 20
-5.18884424472407
 10
8.280251295277464
 20
-5.248993074106871
 10
8.277333847049929
 20
-5.309602483786385
 10
8.274708876542867
 20
-5.370938189020455
 10
8.27217605205257
 20
-5.433186268157013
 10
8.269620024986469
 20
-5.496214251904359
 10
8.266946692529797
 20
-5.559810034060903
 10
8.264061951867796
 20
-5.623761508425041
 10
8.260871700185687
 20
-5.687856568795157
 10
8.257281834668706
 20
-5.751883108969665
 10
8.253198252502087
 20
-5.815629022746951
 10
8.248526850871053
 20
-5.878882203925415
 10
8.243165928473132
 20
-5.941458783526582
 10
8.236983390055032
 20
-6.003287841464435
 10
8.229839541875744
 20
-6.064326694876101
 10
8.221594690194262
 20
-6.124532660898684
 10
8.212109141269584
 20
-6.183863056669303
 10
8.201243201360712
 20
-6.242275199325075
 10
8.188857176726637
 20
-6.299726406003109
 10
8.174811373626353
 20
-6.356173993840516
 10
8.159029488799811
 20
-6.411534851094875
 10
8.14168878091079
 20
-6.465564150505566
 10
8.123029899104
 20
-6.517976635932417
 10
8.103293492524169
 20
-6.568487051235268
 10
8.082720210316018
 20
-6.61681014027395
 10
8.061550701624266
 20
-6.662660646908309
 10
8.040025615593648
 20
-6.705753314998172
 10
8.018385601368878
 20
-6.745802888403376
 10
7.996802396444568
 20
-6.782667160500739
 10
7.975172091714858
 20
-6.816776122735035
 10
7.953321866423781
 20
-6.848702816068003
 10
7.931078899815373
 20
-6.879020281461402
 10
7.908270371133665
 20
-6.908301559876973
 10
7.884723459622689
 20
-6.937119692276471
 10
7.860265344526469
 20
-6.96604771962164
 10
7.834723205089048
 20
-6.995658682874232
 10
7.807949097132036
 20
-7.026372550506422
 10
7.779894582787383
 20
-7.057997001032054
 10
7.750536100764627
 20
-7.090186640475396
 10
7.719850089773299
 20
-7.122596074860721
 10
7.687812988522937
 20
-7.154879910212287
 10
7.654401235723065
 20
-7.186692752554373
 10
7.619591270083237
 20
-7.217689207911242
 10
7.583359530312977
 20
-7.247523882307159
 10
7.545736130888322
 20
-7.275931188714137
 10
7.506965889351292
 20
-7.30296476789514
 10
7.467347299010434
 20
-7.328758067560874
 10
7.42717885317427
 20
-7.35344453542204
 10
7.386759045151336
 20
-7.377157619189338
 10
7.346386368250151
 20
-7.400030766573483
 10
7.306359315779255
 20
-7.422197425285173
 10
7.266976381047181
 20
-7.443791043035105
 10
7.22846143379807
 20
-7.464904510144009
 10
7.190739849518575
 20
-7.485468487372649
 10
7.153662380130953
 20
-7.505373078091807
 10
7.117079777557476
 20
-7.524508385672261
 10
7.080842793720393
 20
-7.542764513484797
 10
7.044802180541982
 20
-7.560031564900196
 10
7.00880868994451
 20
-7.576199643289241
 10
6.972713073850226
 20
-7.591158852022708
 10
6.936407978828174
 20
-7.604849009773506
 10
6.899953630034511
 20
-7.617408796423061
 10
6.863452147272147
 20
-7.629026607154905
 10
6.827005650344002
 20
-7.639890837152579
 10
6.790716259053015
 20
-7.650189881599631
 10
6.754686093202087
 20
-7.660112135679597
 10
6.719017272594154
 20
-7.66984599457602
 10
6.683811917032134
 20
-7.679579853472441
 10
6.649229749441683
 20
-7.689447158676612
 10
6.615660905239391
 20
-7.69936156099313
 10
6.58355312296458
 20
-7.709181762350784
 10
6.553354141156578
 20
-7.718766464678383
 10
6.525511698354709
 20
-7.727974369904725
 10
6.500473533098297
 20
-7.736664179958612
 10
6.478687383926665
 20
-7.744694596768844
 10
6.460600989379138
 20
-7.751924322264222
 10
6.446591657975963
 20
-7.758401934233055
 10
6.436754978161033
 20
-7.764935513901721
 10
6.431116108359184
 20
-7.772523018356095
 10
6.429700206995235
 20
-7.782162404682064
 10
6.432532432494006
 20
-7.794851629965516
 10
6.439637943280331
 20
-7.811588651292324
 10
6.451041897779019
 20
-7.83337142574837
 10
6.466769454414905
 20
-7.861197910419551
 10
6.486716331607237
 20
-7.895847569670187
 10
6.510260487753031
 20
-7.937225896978378
 10
6.536650441243709
 20
-7.985019893100683
 10
6.565134710470719
 20
-8.038916558793662
 10
6.594961813825502
 20
-8.098602894813865
 10
6.625380269699491
 20
-8.163765901917841
 10
6.655638596484124
 20
-8.234092580862142
 10
6.684985312570841
 20
-8.309269932403331
 10
6.712734519451716
 20
-8.388956052830668
 10
6.738462651021407
 20
-8.472693420564286
 10
6.761811724275208
 20
-8.559995609557034
 10
6.782423756208409
 20
-8.650376193761747
 10
6.799940763816302
 20
-8.743348747131285
 10
6.814004764094178
 20
-8.838426843618485
 10
6.824257774037345
 20
-8.935124057176196
 10
6.83034181064108
 20
-9.032953961757268
 10
6.8319585547348
 20
-9.13141022201691
 10
6.829048342484387
 20
-9.229906865419859
 10
6.821611173889841
 20
-9.327838010133206
 10
6.809647048951161
 20
-9.424597774324041
 10
6.793155967668347
 20
-9.519580276159469
 10
6.772137930041402
 20
-9.612179633806594
 10
6.746592936070323
 20
-9.701789965432503
 10
6.71652098575511
 20
-9.787805389204301
 10
6.681969234416527
 20
-9.86978495802186
 10
6.64317345865837
 20
-9.947947463716197
 10
6.60041659040522
 20
-10.0226766328511
 10
6.553981561581636
 20
-10.09435619199036
 10
6.504151304112181
 20
-10.16336986769776
 10
6.451208749921423
 20
-10.2301013865371
 10
6.395436830933928
 20
-10.29493447507216
 10
6.33711847907427
 20
-10.35825285986675
 10
6.276523154063845
 20
-10.42032582220313
 10
6.21386642681141
 20
-10.4809648622375
 10
6.149350396022569
 20
-10.53986703484457
 10
6.083177160402929
 20
-10.59672939489901
 10
6.015548818658078
 20
-10.65124899727555
 10
5.946667469493625
 20
-10.70312289684884
 10
5.876735211615159
 20
-10.75204814849359
 10
5.805954143728285
 20
-10.79772180708449
 10
5.734472471930033
 20
-10.84003279190049
 10
5.662222831883166
 20
-10.87963747983757
 10
5.589083966641876
 20
-10.91738411219597
 10
5.514934619260358
 20
-10.9541209302759
 10
5.43965353279281
 20
-10.99069617537762
 10
5.363119450293421
 20
-11.02795808880135
 10
5.285211114816384
 20
-11.06675491184732
 10
5.205807269415902
 20
-11.10793488581578
 10
5.124911282973112
 20
-11.15223853865227
 10
5.043025027676989
 20
-11.19997554488363
 10
4.960775001543449
 20
-11.251347865682
 10
4.878787702588407
 20
-11.30655746221952
 10
4.797689628827791
 20
-11.36580629566835
 10
4.718107278277516
 20
-11.42929632720063
 10
4.640667148953497
 20
-11.49722951798853
 10
4.565995738871663
 20
-11.56980782920416
 10
4.494675759133825
 20
-11.64700096605444
 10
4.427114773185389
 20
-11.72784960988513
 10
4.363676557557653
 20
-11.81116218607679
 10
4.304724888781922
 20
-11.89574712000993
 10
4.250623543389504
 20
-11.98041283706511
 10
4.201736297911688
 20
-12.06396776262284
 10
4.158426928879784
 20
-12.14522032206365
 10
4.121059212825091
 20
-12.22297894076809
 10
4.089862824406125
 20
-12.29636965486468
 10
4.064531030790249
 20
-12.36578894347404
 10
4.044622997272044
 20
-12.43195089646475
 10
4.029697889146088
 20
-12.49556960370541
 10
4.019314871706956
 20
-12.55735915506462
 10
4.013033110249233
 20
-12.61803364041101
 10
4.010411770067488
 20
-12.67830714961314
 10
4.011010016456307
 20
-12.73889377253965
 10
4.014414590663182
 20
-12.80028535961287
 10
4.020322537747267
 20
-12.86208480347011
 10
4.028458478720626
 20
-12.92367275730244
 10
4.038547034595335
 20
-12.98442987430094
 10
4.050312826383466
 20
-13.04373680765667
 10
4.06348047509708
 20
-13.1009742105607
 10
4.077774601748249
 20
-13.15552273620407
 10
4.092919827349046
 20
-13.20676303777787
 10
4.108672238261465
 20
-13.25423889704501
 10
4.124913782247201
 20
-13.29814661005582
 10
4.141557872417884
 20
-13.33884560143247
 10
4.158517921885131
 20
-13.37669529579713
 10
4.175707343760572
 20
-13.41205511777198
 10
4.193039551155827
 20
-13.4452844919792
 10
4.21042795718252
 20
-13.47674284304096
 10
4.227785974952277
 20
-13.50678959557944
 10
4.245019513038094
 20
-13.53570478562948
 10
4.262004461858468
 20
-13.56345089487661
 10
4.278609207293269
 20
-13.589911016419
 10
4.294702135222363
 20
-13.61496824335485
 10
4.31015163152562
 20
-13.63850566878234
 10
4.324826082082907
 20
-13.66040638579968
 10
4.338593872774097
 20
-13.68055348750504
 10
4.351323389479059
 20
-13.69883006699659
 10
4.362919578029966
 20
-13.7151947203429
 10
4.373433624068205
 20
-13.72990805549384
 10
4.382953273187471
 20
-13.74330618336966
 10
4.39156627098146
 20
-13.75572521489059
 10
4.399360363043872
 20
-13.76750126097687
 10
4.406423294968398
 20
-13.77897043254873
 10
4.412842812348735
 20
-13.79046884052642
 10
4.418706660778582
 20
-13.80233259583018
 10
4.424085524129328
 20
-13.81482717689946
 10
4.428981839383165
 20
-13.82793553225073
 10
4.433380981799999
 20
-13.84156997791963
 10
4.43726832663971
 20
-13.85564282994183
 10
4.440629249162203
 20
-13.87006640435303
 10
4.44344912462737
 20
-13.88475301718886
 10
4.445713328295106
 20
-13.89961498448501
 10
4.447407235425309
 20
-13.91456462227715
 10
4.448533281576697
 20
-13.92997944345285
 10
4.449162143503315
 20
-13.94809774830731
 10
4.449381558258025
 20
-13.97162303398761
 10
4.449279262893707
 20
-14.00325879764088
 10
4.448942994463216
 20
-14.04570853641418
 10
4.448460490019439
 20
-14.10167574745464
 10
4.44791948661523
 20
-14.17386392790932
 10
4.447407721303466
 20
-14.26497657492537
 10
4.446990455954857
 20
-14.3763402089055
 10
4.446643051711454
 20
-14.50377344327512
 10
4.44631839453315
 20
-14.64171791471525
 10
4.445969370379849
 20
-14.78461525990693
 10
4.445548865211446
 20
-14.9269071155312
 10
4.44500976498783
 20
-15.0630351182691
 10
4.444304955668901
 20
-15.18744090480166
 10
4.443387323214551
 20
-15.29456611180993
 10
4.442210396044547
 20
-15.38024954401034
 10
4.440730272418139
 20
-15.44591867826095
 10
4.438903693054431
 20
-15.4943981594552
 10
4.436687398672539
 20
-15.52851263248654
 10
4.434038129991577
 20
-15.55108674224843
 10
4.430912627730666
 20
-15.5649451336343
 10
4.427267632608906
 20
-15.57291245153761
 10
4.423059885345416
 20
-15.57781334085181
 10
4.418264095607074
 20
-15.58200733127028
 10
4.412926848851782
 20
-15.58599349168608
 10
4.407112699485207
 20
-15.58980577579222
 10
4.400886201913017
 20
-15.59347813728171
 10
4.394311910540874
 20
-15.59704452984755
 10
4.387454379774453
 20
-15.60053890718272
 10
4.380378164019408
 20
-15.60399522298024
 10
4.373147817681417
 20
-15.60744743093311
 10
4.365836420807895
 20
-15.61092071712355
 10
4.358551156013305
 20
-15.61440519719066
 10
4.351407731553837
 20
-15.61788221916276
 10
4.344521855685712
 20
-15.62133313106819
 10
4.338009236665136
 20
-15.62473928093525
 10
4.331985582748316
 20
-15.6280820167923
 10
4.326566602191462
 20
-15.63134268666764
 10
4.321868003250774
 20
-15.63450263858958
 10
4.317961947834948
 20
-15.63757057479135
 10
4.314746412462593
 20
-15.64066461432562
 10
4.312075827304791
 20
-15.64393023044997
 10
4.309804622532638
 20
-15.64751289642197
 10
4.307787228317224
 20
-15.65155808549917
 10
4.305878074829632
 20
-15.65621127093914
 10
4.303931592240957
 20
-15.66161792599945
 10
4.301802210722282
 20
-15.66792352393766
 10
4.299364267685344
 20
-15.67522318184056
 10
4.296571729504464
 20
-15.68341059211177
 10
4.293398469794592
 20
-15.69232909098414
 10
4.289818362170692
 20
-15.70182201469051
 10
4.285805280247725
 20
-15.71173269946373
 10
4.28133309764064
 20
-15.72190448153665
 10
4.276375687964414
 20
-15.73218069714211
 10
4.270906924833994
 20
-15.74240468251296
 10
4.264917477872071
 20
-15.75244526328256
 10
4.25846520073226
 20
-15.76227322268644
 10
4.251624743075911
 20
-15.77188483336063
 10
4.24447075456436
 20
-15.78127636794118
 10
4.237077884858955
 20
-15.79044409906413
 10
4.229520783621044
 20
-15.79938429936551
 10
4.221874100511961
 20
-15.80809324148139
 10
4.214212485193055
 20
-15.81656719804779
 10
4.206586326162014
 20
-15.82479560286895
 10
4.198948967261866
 20
-15.83274053442187
 10
4.191229491171991
 20
-15.84035723235173
 10
4.183356980571769
 20
-15.84760093630373
 10
4.175260518140568
 20
-15.85442688592305
 10
4.166869186557764
 20
-15.86079032085488
 10
4.158112068502745
 20
-15.8666464807444
 10
4.148918246654872
 20
-15.87195060523681
 10
4.139230489417325
 20
-15.87668031359353
 10
4.129046308088469
 20
-15.88090274354086
 10
4.11837689969046
 20
-15.88470741242133
 10
4.107233461245463
 20
-15.88818383757749
 10
4.09562718977563
 20
-15.89142153635188
 10
4.083569282303134
 20
-15.89451002608702
 10
4.071070935850126
 20
-15.89753882412547
 10
4.058143347438768
 20
-15.90059744780975
 10
4.044779051438641
 20
-15.90376671224921
 10
4.030895931609002
 20
-15.90709262362039
 10
4.016393209056516
 20
-15.91061248586664
 10
4.001170104887865
 20
-15.91436360293133
 10
3.985125840209718
 20
-15.91838327875781
 10
3.968159636128742
 20
-15.92270881728941
 10
3.950170713751624
 20
-15.92737752246951
 10
3.931058294185017
 20
-15.93242669824144
 10
3.910733419038034
 20
-15.93791789268855
 10
3.889154411929421
 20
-15.94400963045405
 10
3.866291416980363
 20
-15.95088468032115
 10
3.842114578312045
 20
-15.95872581107306
 10
3.816594040045647
 20
-15.96771579149299
 10
3.789699946302349
 20
-15.97803739036413
 10
3.761402441203326
 20
-15.98987337646969
 10
3.731671668869772
 20
-16.00340651859287
 10
3.700507536776061
 20
-16.01880338450306
 10
3.66802900580944
 20
-16.03616573791436
 10
3.634384800210344
 20
-16.05557914152707
 10
3.599723644219217
 20
-16.07712915804147
 10
3.564194262076499
 20
-16.10090135015787
 10
3.52794537802263
 20
-16.12698128057654
 10
3.491125716298057
 20
-16.15545451199777
 10
3.453884001143221
 20
-16.18640660712185
 10
3.416329349669535
 20
-16.21992412586765
 10
3.378412450472303
 20
-16.25609761702831
 10
3.340044385017803
 20
-16.29501862661555
 10
3.301136234772307
 20
-16.33677870064109
 10
3.261599081202096
 20
-16.38146938511665
 10
3.221344005773445
 20
-16.42918222605396
 10
3.18028208995263
 20
-16.48000876946472
 10
3.13832441520593
 20
-16.53404056136066
 10
3.09542429785594
 20
-16.5912196926364
 10
3.051703993650555
 20
-16.65089043371821
 10
3.007327993193996
 20
-16.71224759991527
 10
2.962460787090467
 20
-16.77448600653674
 10
2.917266865944192
 20
-16.83680046889181
 10
2.871910720359384
 20
-16.89838580228963
 10
2.826556840940259
 20
-16.9584368220394
 10
2.781369718291035
 20
-17.01614834345028
 10
2.736486427915219
 20
-17.07084248292705
 10
2.691934384913521
 20
-17.12235056125697
 10
2.647713589285936
 20
-17.17063120032287
 10
2.603824041032467
 20
-17.21564302200761
 10
2.560265740153115
 20
-17.25734464819407
 10
2.517038686647877
 20
-17.29569470076506
 10
2.474142880516757
 20
-17.33065180160347
 10
2.431578321759756
 20
-17.36217457259214
 10
2.389400277583847
 20
-17.39027615462509
 10
2.3478850840239
 20
-17.41518776464105
 10
2.307364344321761
 20
-17.4371951385899
 10
2.268169661719274
 20
-17.45658401242152
 10
2.23063263945828
 20
-17.47364012208582
 10
2.19508488078063
 20
-17.48864920353268
 10
2.161857988928167
 20
-17.50189699271199
 10
2.131283567142734
 20
-17.51366922557362
 10
2.103615511389319
 20
-17.52421510715089
 10
2.078796888525504
 20
-17.53363771881083
 10
2.056693058131997
 20
-17.54200361100387
 10
2.037169379789522
 20
-17.54937933418043
 10
2.020091213078801
 20
-17.55583143879094
 10
2.005323917580546
 20
-17.56142647528585
 10
1.992732852875478
 20
-17.56623099411559
 10
1.982183378544323
 20
-17.57031154573059
 10
1.973528633195556
 20
-17.5739434494397
 10
1.966572871548734
 20
-17.57823709998543
 10
1.961108127351177
 20
-17.58451166096869
 10
1.95692643435021
 20
-17.59408629599039
 10
1.953819826293143
 20
-17.60828016865146
 10
1.951580336927302
 20
-17.6284124425528
 10
1.950000000000002
 20
-17.65580228129535
 10
1.948870849258566
 20
-17.69176884848001
 10
1.948005102318806
 20
-17.73701720289015
 10
1.947295712270493
 20
-17.78979598403889
 10
1.946655816071898
 20
-17.84773972662181
 10
1.94599855068129
 20
-17.9084829653345
 10
1.94523705305693
 20
-17.96966023487252
 10
1.944284460157093
 20
-18.02890606993146
 10
1.943053908940041
 20
-18.08385500520689
 10
1.941458536364042
 20
-18.13214157539439
 10
1.939423784344381
 20
-18.17197540558417
 10
1.936924314624406
 20
-18.20386648244493
 10
1.933947093904494
 20
-18.22889988304003
 10
1.930479088885002
 20
-18.24816068443281
 10
1.926507266266304
 20
-18.26273396368662
 10
1.922018592748772
 20
-18.2737047978648
 10
1.917000035032763
 20
-18.28215826403068
 10
1.911438559818654
 20
-18.28917943924764
 10
1.905318239890457
 20
-18.29566893702928
 10
1.898611572366759
 20
-18.30178951669039
 10
1.891288160449803
 20
-18.30751947399604
 10
1.883317607341819
 20
-18.31283710471129
 10
1.874669516245045
 20
-18.31772070460119
 10
1.865313490361725
 20
-18.32214856943082
 10
1.855219132894081
 20
-18.32609899496525
 10
1.84435604704436
 20
-18.32955027696953
 10
1.832711930702485
 20
-18.33249083940276
 10
1.820346860509135
 20
-18.33494961900012
 10
1.807339007792683
 20
-18.33696568069084
 10
1.793766543881499
 20
-18.33857808940412
 10
1.77970764010395
 20
-18.33982591006917
 10
1.765240467788405
 20
-18.34074820761523
 10
1.75044319826324
 20
-18.34138404697149
 10
1.735394002856819
 20
-18.34177249306718
 10
1.720140652778319
 20
-18.34196346098485
 10
1.704609318760128
 20
-18.34205026642038
 10
1.688695771415436
 20
-18.34213707522298
 10
1.672295781357437
 20
-18.34232805324191
 10
1.655305119199327
 20
-18.34272736632636
 10
1.637619555554296
 20
-18.34343918032555
 10
1.619134861035536
 20
-18.34456766108872
 10
1.599746806256241
 20
-18.34621697446509
 10
1.579382285546509
 20
-18.34848115923221
 10
1.558092688104073
 20
-18.35141374588098
 10
1.535960526843573
 20
-18.35505813783067
 10
1.513068314679644
 20
-18.35945773850049
 10
1.489498564526931
 20
-18.3646559513097
 10
1.465333789300068
 20
-18.37069617967753
 10
1.440656501913698
 20
-18.37762182702325
 10
1.415549215282458
 20
-18.38547629676607
 10
1.390062938062853
 20
-18.39431126890268
 10
1.364122661878877
 20
-18.40421152973951
 10
1.337621874096379
 20
-18.41527014216042
 10
1.310454062081223
 20
-18.42758016904929
 10
1.282512713199256
 20
-18.44123467328996
 10
1.253691314816337
 20
-18.45632671776629
 10
1.223883354298327
 20
-18.47294936536216
 10
1.192982319011074
 20
-18.49119567896143
 10
1.160946849532868
 20
-18.51113919655929
 10
1.127996199291702
 20
-18.53277535659629
 10
1.094414774928013
 20
-18.5560800726243
 10
1.060486983082221
 20
-18.58102925819519
 10
1.026497230394753
 20
-18.60759882686085
 10
0.9927299235060464
 20
-18.63576469217314
 10
0.9594694690565148
 20
-18.66550276768395
 10
0.9270002736865965
 20
-18.69678896694515
 10
0.8955679995310577
 20
-18.7295814014455
 10
0.8652633307020387
 20
-18.76376697442134
 10
0.8361382068060168
 20
-18.79921478704591
 10
0.8082445674494795
 20
-18.83579394049245
 10
0.7816343522389034
 20
-18.87337353593416
 10
0.7563595007807767
 20
-18.9118226745443
 10
0.7324719526815758
 20
-18.95101045749608
 10
0.7100236475477848
 20
-18.99080598596275
 10
0.6890491690795955
 20
-19.03108527626995
 10
0.6695136773520574
 20
-19.07175200535302
 10
0.6513649765339125
 20
-19.11271676529969
 10
0.6345508707939267
 20
-19.15389014819772
 10
0.6190191643008492
 20
-19.19518274613488
 10
0.6047176612234342
 20
-19.2365051511989
 10
0.5915941657304398
 20
-19.27776795547753
 10
0.5795964819906168
 20
-19.31888175105853
 10
0.5686736589980317
 20
-19.35978444916071
 10
0.5587797250479794
 20
-19.40052323752714
 10
0.5498699532610658
 20
-19.44117262303194
 10
0.5418996167579096
 20
-19.48180711254927
 10
0.5348239886591087
 20
-19.52250121295322
 10
0.5285983420852701
 20
-19.56332943111796
 10
0.5231779501570087
 20
-19.6043662739176
 10
0.5185180859949253
 20
-19.64568624822627
 10
0.5145665632575858
 20
-19.68741104950295
 10
0.5112413577553561
 20
-19.72985112754597
 10
0.5084529858365699
 20
-19.77336412073849
 10
0.5061119638495537
 20
-19.8183076674637
 10
0.5041288081426317
 20
-19.86503940610477
 10
0.5024140350641293
 20
-19.91391697504484
 10
0.5008781609623734
 20
-19.96529801266711
 10
0.5007364333725724
 20
-19.9706127914607
  0
LINE
  5
126F6
330
124BD
100
AcDbEntity
  8
0
100
AcDbLine
 10
14.13902915878467
 20
-2.000000000000007
 30
0.0
 11
1.949999999999999
 21
-2.000000000000002
 31
0.0
  0
LWPOLYLINE
  5
126F7
330
124BD
100
AcDbEntity
  8
0
100
AcDbPolyline
 90
      732
 70
     0
 43
0.0
 10
11.70152697622404
 20
-4.793564039281062
 10
11.64949768609265
 20
-4.791045941172346
 10
11.60667462430707
 20
-4.78377942717833
 10
11.57189689197972
 20
-4.772196167797216
 10
11.54400359022302
 20
-4.756727833527222
 10
11.5218338201494
 20
-4.737806094866546
 10
11.50422668287127
 20
-4.71586262231339
 10
11.49002127950105
 20
-4.691329086365976
 10
11.47805671115118
 20
-4.664637157522496
 10
11.46727556859049
 20
-4.636101595731674
 10
11.45703440121353
 20
-4.605569518744279
 10
11.4467932480713
 20
-4.572771133761574
 10
11.43601214821474
 20
-4.537436647984862
 10
11.42415114069484
 20
-4.4992962686154
 10
11.41067026456258
 20
-4.458080202854481
 10
11.39502955886893
 20
-4.413518657903368
 10
11.37668906266486
 20
-4.365341840963353
 10
11.35523480617416
 20
-4.313500292350231
 10
11.33075678431179
 20
-4.258825884837901
 10
11.30347098316554
 20
-4.202370824314784
 10
11.27359338882316
 20
-4.145187316669301
 10
11.24133998737245
 20
-4.088327567789874
 10
11.20692676490118
 20
-4.032843783564918
 10
11.17056970749711
 20
-3.979788169882863
 10
11.13248480124803
 20
-3.93021293263212
 10
11.09277554055526
 20
-3.884886991586729
 10
11.05109545307435
 20
-3.843446122063135
 10
11.00698557477438
 20
-3.805242813263398
 10
10.95998694162449
 20
-3.769629554389585
 10
10.90964058959373
 20
-3.735958834643764
 10
10.85548755465122
 20
-3.703583143227992
 10
10.79706887276605
 20
-3.671854969344324
 10
10.73392557990733
 20
-3.640126802194834
 10
10.6659091867073
 20
-3.607948981503167
 10
10.59411310245088
 20
-3.575663249079351
 10
10.51994121108612
 20
-3.543809197254998
 10
10.44479739656108
 20
-3.512926418361726
 10
10.37008554282383
 20
-3.48355450473115
 10
10.29720953382241
 20
-3.456233048694882
 10
10.2275732535049
 20
-3.431501642584541
 10
10.16258058581935
 20
-3.409899878731738
 10
10.10321694937924
 20
-3.391841444590717
 10
10.04879390145964
 20
-3.377236408106201
 10
9.998204534001015
 20
-3.365868932345555
 10
9.950341938943871
 20
-3.357523180376117
 10
9.904099208228675
 20
-3.351983315265255
 10
9.858369433795903
 20
-3.349033500080314
 10
9.812045707586056
 20
-3.348457897888652
 10
9.764021121539595
 20
-3.35004067175762
 10
9.713409249005914
 20
-3.353597461114214
 10
9.660205588970002
 20
-3.359069810823987
 10
9.604626121825752
 20
-3.366430742112124
 10
9.546886827967043
 20
-3.375653276203818
 10
9.487203687787785
 20
-3.386710434324264
 10
9.425792681681864
 20
-3.399575237698642
 10
9.362869790043166
 20
-3.414220707552154
 10
9.298650993265587
 20
-3.43061986510999
 10
9.233433266288683
 20
-3.448736738111216
 10
9.167837562234712
 20
-3.468499380350444
 10
9.102565828771579
 20
-3.489826852136154
 10
9.038320013567194
 20
-3.51263821377683
 10
8.975802064289483
 20
-3.536852525580965
 10
8.91571392860634
 20
-3.562388847857049
 10
8.858757554185704
 20
-3.589166240913554
 10
8.80563488869547
 20
-3.617103765058976
 10
8.756813897247587
 20
-3.64621041293766
 10
8.71182661473011
 20
-3.676854906537387
 10
8.669971093475137
 20
-3.709495900181803
 10
8.630545385814732
 20
-3.744592048194559
 10
8.592847544081003
 20
-3.782602004899293
 10
8.556175620606019
 20
-3.823984424619649
 10
8.519827667721875
 20
-3.86919796167928
 10
8.483101737760664
 20
-3.918701270401819
 10
8.445516365886826
 20
-3.9727956238739
 10
8.407472018594321
 20
-4.031152770234084
 10
8.369589645209471
 20
-4.09328707638392
 10
8.332490195058598
 20
-4.158712909224957
 10
8.296794617468011
 20
-4.226944635658733
 10
8.263123861764043
 20
-4.297496622586799
 10
8.232098877273005
 20
-4.369883236910703
 10
8.204340613321232
 20
-4.443618845531983
 10
8.180303533399087
 20
-4.518276270767231
 10
8.159776157653221
 20
-4.593662156593187
 10
8.142380520394306
 20
-4.669641602401639
 10
8.127738655933042
 20
-4.746079707584359
 10
8.115472598580115
 20
-4.822841571533138
 10
8.105204382646221
 20
-4.899792293639749
 10
8.096556042442053
 20
-4.97679697329598
 10
8.089149612278285
 20
-5.053720709893611
 10
8.082643122723451
 20
-5.130446589796659
 10
8.076838589377361
 20
-5.206929647258076
 10
8.07157402409765
 20
-5.283142903503057
 10
8.066687438741961
 20
-5.359059379756796
 10
8.062016845167928
 20
-5.434652097244476
 10
8.057400255233188
 20
-5.509894077191291
 10
8.05267568079539
 20
-5.584758340822433
 10
8.047681133712172
 20
-5.65921790936309
 10
8.042236627000521
 20
-5.733259293706454
 10
8.036090178314831
 20
-5.80692296341768
 10
8.028971806468865
 20
-5.880262877729948
 10
8.020611530276372
 20
-5.953332995876402
 10
8.010739368551101
 20
-6.026187277090214
 10
7.999085340106809
 20
-6.098879680604544
 10
7.985379463757245
 20
-6.171464165652545
 10
7.969351758316157
 20
-6.243994691467393
 10
7.950768241227578
 20
-6.316430788203324
 10
7.929538924456652
 20
-6.388354269698907
 10
7.905609818598774
 20
-6.459252520713792
 10
7.878926934249365
 20
-6.528612926007629
 10
7.849436282003827
 20
-6.595922870340074
 10
7.817083872457587
 20
-6.66066973847077
 10
7.781815716206041
 20
-6.722340915159374
 10
7.743577823844605
 20
-6.78042378516554
 10
7.702347701211509
 20
-6.834527142224995
 10
7.658228835116229
 20
-6.88474541597785
 10
7.611356207611073
 20
-6.931294445040292
 10
7.561864800748336
 20
-6.97439006802851
 10
7.509889596580311
 20
-7.014248123558692
 10
7.45556557715931
 20
-7.051084450247028
 10
7.399027724537617
 20
-7.085114886709712
 10
7.340411020767538
 20
-7.116555271562923
 10
7.279791955109315
 20
-7.1455944632451
 10
7.217013045655001
 20
-7.172313399483611
 10
7.151858317704576
 20
-7.196766037828089
 10
7.084111796558048
 20
-7.219006335828145
 10
7.013557507515388
 20
-7.239088251033392
 10
6.939979475876594
 20
-7.257065740993459
 10
6.863161726941669
 20
-7.272992763257962
 10
6.782888286010592
 20
-7.286923275376517
 10
6.699078164706065
 20
-7.298911235740515
 10
6.612190319941646
 20
-7.309010606108429
 10
6.522818694953592
 20
-7.317275349080512
 10
6.431557232978162
 20
-7.323759427257003
 10
6.338999877251609
 20
-7.328516803238155
 10
6.245740571010202
 20
-7.331601439624222
 10
6.1523732574902
 20
-7.333067299015434
 10
6.059491879927859
 20
-7.332968344012053
 10
5.967609390809693
 20
-7.331304576858796
 10
5.876914779623218
 20
-7.327860158378291
 10
5.787516045106208
 20
-7.322365289037646
 10
5.699521185996438
 20
-7.314550169303977
 10
5.613038201031674
 20
-7.304144999644377
 10
5.528175088949693
 20
-7.290879980525959
 10
5.445039848488256
 20
-7.27448531241583
 10
5.363740478385141
 20
-7.254691195781095
 10
5.284321980249629
 20
-7.231263804472149
 10
5.206577367177011
 20
-7.204113205872543
 10
5.130236655134112
 20
-7.173185440749119
 10
5.055029860087733
 20
-7.138426549868709
 10
4.980686998004685
 20
-7.099782573998156
 10
4.90693808485178
 20
-7.057199553904295
 10
4.833513136595827
 20
-7.010623530353974
 10
4.760142169203639
 20
-6.96000054411402
 10
4.686681190052066
 20
-6.905321602259506
 10
4.613490172158147
 20
-6.846757577098385
 10
4.541055079948964
 20
-6.784524307246861
 10
4.469861877851599
 20
-6.718837631321107
 10
4.400396530293132
 20
-6.649913387937325
 10
4.333145001700644
 20
-6.577967415711696
 10
4.268593256501215
 20
-6.503215553260411
 10
4.207227259121928
 20
-6.425873639199656
 10
4.149429481486496
 20
-6.346220464864901
 10
4.095168425505168
 20
-6.264786632468728
 10
4.044309100584811
 20
-6.182165696943004
 10
3.996716516132313
 20
-6.098951213219588
 10
3.952255681554536
 20
-6.015736736230341
 10
3.910791606258367
 20
-5.933115820907134
 10
3.872189299650681
 20
-5.851682022181818
 10
3.83631377113835
 20
-5.772028894986266
 10
3.802958036189131
 20
-5.694601605098482
 10
3.771627134514302
 20
-5.619251761681076
 10
3.741754111886002
 20
-5.545682584742801
 10
3.71277201407639
 20
-5.473597294292415
 10
3.684113886857614
 20
-5.402699110338663
 10
3.655212776001821
 20
-5.332691252890305
 10
3.62550172728117
 20
-5.263276941956099
 10
3.594413786467804
 20
-5.194159397544793
 10
3.56150348925442
 20
-5.125158752739944
 10
3.52681133101589
 20
-5.056562792924323
 10
3.490499297047641
 20
-4.988776216555502
 10
3.452729372645087
 20
-4.922203722091036
 10
3.413663543103652
 20
-4.857250007988501
 10
3.373463793718752
 20
-4.794319772705466
 10
3.332292109785807
 20
-4.733817714699497
 10
3.290310476600236
 20
-4.676148532428165
 10
3.247685380472471
 20
-4.621591018349305
 10
3.204601311772984
 20
-4.569920340921778
 10
3.161247261887247
 20
-4.52078576260473
 10
3.117812222200747
 20
-4.473836545857294
 10
3.074485184098962
 20
-4.428721953138608
 10
3.031455138967366
 20
-4.385091246907808
 10
2.988911078191447
 20
-4.342593689624027
 10
2.947041993156679
 20
-4.300878543746399
 10
2.906059370833789
 20
-4.259631044836764
 10
2.866264680534484
 20
-4.218680320867747
 10
2.827981887155722
 20
-4.177891472914664
 10
2.791534955594451
 20
-4.13712960205286
 10
2.757247850747635
 20
-4.096259809357642
 10
2.725444537512215
 20
-4.055147195904337
 10
2.696448980785161
 20
-4.013656862768275
 10
2.670585145463416
 20
-3.971653911024786
 10
2.648096005219697
 20
-3.929075387954574
 10
2.62890056882977
 20
-3.886146125659966
 10
2.612836853845148
 20
-3.843162902448645
 10
2.599742877817364
 20
-3.80042249662833
 10
2.589456658297937
 20
-3.758221686506713
 10
2.581816212838386
 20
-3.7168572503915
 10
2.576659558990236
 20
-3.676625966590396
 10
2.573824714305013
 20
-3.637824613411098
 10
2.573172194291929
 20
-3.600583593596404
 10
2.574652506290995
 20
-3.564367807629499
 10
2.578238655599919
 20
-3.528475780428648
 10
2.583903647516407
 20
-3.492206036912124
 10
2.591620487338159
 20
-3.454857101998197
 10
2.601362180362883
 20
-3.415727500605135
 10
2.613101731888285
 20
-3.374115757651217
 10
2.626812147212072
 20
-3.329320398054716
 10
2.642466429733982
 20
-3.280869275298672
 10
2.660037575261926
 20
-3.229207557125231
 10
2.679498577705832
 20
-3.175009739841313
 10
2.700822430975645
 20
-3.118950319753833
 10
2.723982128981305
 20
-3.061703793169716
 10
2.748950665632744
 20
-3.003944656395884
 10
2.77570103483991
 20
-2.94634740573924
 10
2.804206230512738
 20
-2.889586537506721
 10
2.834349198266034
 20
-2.834298354870646
 10
2.865652690534062
 20
-2.780966388464995
 10
2.897549411455958
 20
-2.73003597578915
 10
2.929472065170852
 20
-2.681952454342502
 10
2.960853355817882
 20
-2.637161161624434
 10
2.991125987536172
 20
-2.596107435134331
 10
3.019722664464859
 20
-2.559236612371582
 10
3.046076090743074
 20
-2.526994030835568
 10
3.069772325301258
 20
-2.499671711422384
 10
3.091010846235064
 20
-2.476948408614912
 10
3.110144486431465
 20
-2.458349560292742
 10
3.127526078777412
 20
-2.443400604335472
 10
3.143508456159878
 20
-2.431626978622686
 10
3.158444451465824
 20
-2.422554121033971
 10
3.172686897582215
 20
-2.415707469448918
 10
3.186588627396011
 20
-2.410612461747122
 10
3.200431035008708
 20
-2.406870817697688
 10
3.214209759379944
 20
-2.404389384627798
 10
3.227849000683869
 20
-2.403151291754157
 10
3.241272959094649
 20
-2.403139668293459
 10
3.254405834786446
 20
-2.40433764346241
 10
3.267171827933418
 20
-2.406728346477708
 10
3.27949513870973
 20
-2.410294906556054
 10
3.291299967289543
 20
-2.41502045291415
 10
3.302507907946274
 20
-2.420864277484916
 10
3.31303013135038
 20
-2.427690323066174
 10
3.322775202271568
 20
-2.435338695171964
 10
3.331651685479554
 20
-2.443649499316317
 10
3.339568145744049
 20
-2.452462841013286
 10
3.346433147834765
 20
-2.461618825776904
 10
3.352155256521418
 20
-2.470957559121213
 10
3.356643036573714
 20
-2.480319146560247
 10
3.359845054666324
 20
-2.489562728024556
 10
3.361869885093762
 20
-2.498623581110692
 10
3.362866104055493
 20
-2.507456017831709
 10
3.362982287750984
 20
-2.516014350200666
 10
3.362367012379703
 20
-2.524252890230617
 10
3.361168854141116
 20
-2.532125949934622
 10
3.359536389234694
 20
-2.539587841325726
 10
3.357618193859902
 20
-2.546592876416998
 10
3.355548558736664
 20
-2.553122969468346
 10
3.353404632666759
 20
-2.559270443727126
 10
3.351249278972403
 20
-2.565155224687551
 10
3.349145360975828
 20
-2.570897237843835
 10
3.347155741999262
 20
-2.576616408690185
 10
3.345343285364929
 20
-2.582432662720825
 10
3.34377085439506
 20
-2.588465925429962
 10
3.342501312411876
 20
-2.594836122311806
 10
3.341594663459048
 20
-2.60165937096715
 10
3.341099474465984
 20
-2.609036557423074
 10
3.34106145308354
 20
-2.617064759813229
 10
3.341526306962553
 20
-2.625841056271277
 10
3.34253974375388
 20
-2.63546252493087
 10
3.344147471108366
 20
-2.646026243925665
 10
3.346395196676862
 20
-2.657629291389315
 10
3.349328628110219
 20
-2.670368745455476
 10
3.353005856781692
 20
-2.684315035176807
 10
3.357534508954158
 20
-2.699431993282009
 10
3.363034594612916
 20
-2.71565680341876
 10
3.369626123743252
 20
-2.732926649234771
 10
3.37742910633046
 20
-2.75117871437772
 10
3.386563552359831
 20
-2.770350182495318
 10
3.397149471816646
 20
-2.790378237235257
 10
3.409306874686208
 20
-2.811200062245221
 10
3.423111006115188
 20
-2.8327166741822
 10
3.438458051895789
 20
-2.854684421740275
 10
3.455199432981604
 20
-2.876823486622816
 10
3.47318657032622
 20
-2.898854050533196
 10
3.492270884883231
 20
-2.92049629517478
 10
3.512303797606223
 20
-2.941470402250945
 10
3.533136729448782
 20
-2.961496553465051
 10
3.554621101364507
 20
-2.980294930520477
 10
3.576647383909907
 20
-2.997653290006868
 10
3.599262246053184
 20
-3.013629688059014
 10
3.622551406365456
 20
-3.028349755697977
 10
3.646600583417857
 20
-3.041939123944823
 10
3.671495495781504
 20
-3.05452342382062
 10
3.697321862027521
 20
-3.06622828634644
 10
3.724165400727038
 20
-3.077179342543344
 10
3.752111830451177
 20
-3.087502223432402
 10
3.781175439051924
 20
-3.097300670048841
 10
3.811084791504747
 20
-3.106590863484556
 10
3.841497022065981
 20
-3.115367094845612
 10
3.87206926499196
 20
-3.123623655238072
 10
3.902458654539003
 20
-3.131354835767991
 10
3.932322324963459
 20
-3.138554927541432
 10
3.961317410521651
 20
-3.145218221664449
 10
3.989101045469913
 20
-3.151339009243111
 10
4.015473224553854
 20
-3.156905870525402
 10
4.040805384476236
 20
-3.161884542327018
 10
4.065611822429074
 20
-3.166235050605588
 10
4.09040683560441
 20
-3.169917421318732
 10
4.115704721194266
 20
-3.172891680424074
 10
4.142019776390675
 20
-3.175117853879243
 10
4.169866298385674
 20
-3.176555967641854
 10
4.199758584371288
 20
-3.17716604766954
 10
4.232069975654335
 20
-3.176916685786148
 10
4.26660999000081
 20
-3.175810737280412
 10
4.303047189291486
 20
-3.173859623307308
 10
4.341050135407147
 20
-3.171074765021791
 10
4.38028739022857
 20
-3.167467583578829
 10
4.420427515636536
 20
-3.163049500133382
 10
4.461139073511823
 20
-3.157831935840422
 10
4.50209062573521
 20
-3.151826311854907
 10
4.542966925694564
 20
-3.145069746649883
 10
4.583517492806091
 20
-3.137702147970716
 10
4.623508037993083
 20
-3.129889120880848
 10
4.662704272178842
 20
-3.12179627044372
 10
4.700871906286659
 20
-3.113589201722776
 10
4.73777665123983
 20
-3.105433519781456
 10
4.773184217961649
 20
-3.097494829683208
 10
4.806860317375409
 20
-3.089938736491476
 10
4.838687805417251
 20
-3.082892775594922
 10
4.869018118074686
 20
-3.076332203683106
 10
4.898319836348063
 20
-3.070194207770809
 10
4.927061541237744
 20
-3.064415974872804
 10
4.95571181374408
 20
-3.058934692003881
 10
4.984739234867422
 20
-3.053687546178809
 10
5.014612385608135
 20
-3.048611724412381
 10
5.045799846966559
 20
-3.043644413719372
 10
5.078738567572546
 20
-3.038778269924513
 10
5.11373896657389
 20
-3.034227824092354
 10
5.151079830747876
 20
-3.030263076097387
 10
5.191039946871782
 20
-3.02715402581411
 10
5.233898101722893
 20
-3.025170673117027
 10
5.279933082078494
 20
-3.024583017880625
 10
5.329423674715869
 20
-3.02566105997941
 10
5.382648666412293
 20
-3.028674799287872
 10
5.439692746094944
 20
-3.033819167344831
 10
5.499864211290514
 20
-3.040988822346354
 10
5.562277261675594
 20
-3.050003354152821
 10
5.626046096926756
 20
-3.060682352624627
 10
5.690284916720592
 20
-3.072845407622148
 10
5.75410792073368
 20
-3.08631210900577
 10
5.816629308642603
 20
-3.100902046635884
 10
5.876963280123945
 20
-3.116434810372862
 10
5.934417695224343
 20
-3.132802631024526
 10
5.989075055470678
 20
-3.150188303188403
 10
6.041211522759871
 20
-3.168847262409451
 10
6.091103258988848
 20
-3.189034944232625
 10
6.139026426054549
 20
-3.21100678420288
 10
6.185257185853895
 20
-3.235018217865185
 10
6.230071700283819
 20
-3.261324680764477
 10
6.273746131241241
 20
-3.290181608445736
 10
6.316463418462337
 20
-3.321685073125726
 10
6.358033613040182
 20
-3.355293693708509
 10
6.398173543907113
 20
-3.390306725769981
 10
6.436600039995436
 20
-3.426023424886023
 10
6.473029930237483
 20
-3.461743046632523
 10
6.50718004356557
 20
-3.496764846585361
 10
6.538767208912016
 20
-3.530388080320436
 10
6.567508255209151
 20
-3.56191200341362
 10
6.593204580270404
 20
-3.590820748580887
 10
6.615995857433706
 20
-3.617337957098544
 10
6.636106328918092
 20
-3.641872147382971
 10
6.6537602369426
 20
-3.66483183785055
 10
6.669181823726265
 20
-3.686625546917678
 10
6.682595331488133
 20
-3.707661793000726
 10
6.694225002447243
 20
-3.728349094516087
 10
6.704295078822626
 20
-3.74909596988015
 10
6.712995799909261
 20
-3.770208666768183
 10
6.720381393305878
 20
-3.791584349891032
 10
6.726472083687118
 20
-3.813017913218438
 10
6.731288095727657
 20
-3.834304250720124
 10
6.734849654102148
 20
-3.855238256365828
 10
6.737176983485239
 20
-3.875614824125286
 10
6.738290308551608
 20
-3.895228847968234
 10
6.738209853975895
 20
-3.9138752218644
 10
6.736945488207428
 20
-3.931392621999912
 10
6.734465654794131
 20
-3.947794853426473
 10
6.730728441058607
 20
-3.963139503412166
 10
6.725691934323435
 20
-3.977484159225082
 10
6.719314221911224
 20
-3.990886408133303
 10
6.711553391144548
 20
-4.003403837404932
 10
6.702367529345998
 20
-4.015094034308046
 10
6.691714723838185
 20
-4.026014586110737
 10
6.679598467344209
 20
-4.036218718582653
 10
6.666203874189299
 20
-4.045742211499635
 10
6.651761464099184
 20
-4.054616483139112
 10
6.636501756799617
 20
-4.062872951778477
 10
6.620655272016339
 20
-4.070543035695153
 10
6.604452529475093
 20
-4.077658153166539
 10
6.588124048901622
 20
-4.084249722470054
 10
6.571900350021664
 20
-4.090349161883101
 10
6.55595956171421
 20
-4.095988760916539
 10
6.540270249471202
 20
-4.101204294015002
 10
6.524748587937821
 20
-4.106032406856578
 10
6.509310751759258
 20
-4.110509745119341
 10
6.493872915580695
 20
-4.114672954481378
 10
6.478351254047314
 20
-4.118558680620773
 10
6.462661941804306
 20
-4.122203569215607
 10
6.446721153496852
 20
-4.125644265943964
 10
6.430452922753019
 20
-4.128910436234513
 10
6.413812719132394
 20
-4.132003824518275
 10
6.39676387117746
 20
-4.134919194976874
 10
6.379269707430697
 20
-4.137651311791912
 10
6.361293556434564
 20
-4.140194939145007
 10
6.342798746731537
 20
-4.142544841217774
 10
6.3237486068641
 20
-4.144695782191821
 10
6.30410646537472
 20
-4.146642526248766
 10
6.283849620274866
 20
-4.148378965495004
 10
6.263011247452013
 20
-4.14989550373606
 10
6.241638492262625
 20
-4.151181672702244
 10
6.21977850006316
 20
-4.152227004123873
 10
6.197478416210085
 20
-4.153021029731253
 10
6.174785386059859
 20
-4.153553281254692
 10
6.151746554968958
 20
-4.153813290424499
 10
6.128409068293844
 20
-4.153790588970996
 10
6.104743233854847
 20
-4.153493904661105
 10
6.080412009327782
 20
-4.153008749408241
 10
6.055001514852349
 20
-4.152439831162429
 10
6.028097870568227
 20
-4.151891857873713
 10
5.99928719661511
 20
-4.151469537492121
 10
5.968155613132683
 20
-4.151277577967683
 10
5.934289240260634
 20
-4.151420687250436
 10
5.897274198138646
 20
-4.152003573290412
 10
5.856805945130318
 20
-4.153193752533417
 10
5.813017292494802
 20
-4.155409975408329
 10
5.766150389715154
 20
-4.159133800839826
 10
5.716447386274444
 20
-4.164846787752552
 10
5.664150431655722
 20
-4.173030495071176
 10
5.609501675342045
 20
-4.184166481720347
 10
5.552743266816479
 20
-4.198736306624746
 10
5.494117355562078
 20
-4.217221528709012
 10
5.433968423436478
 20
-4.239940306433784
 10
5.373050281795631
 20
-4.266557196403586
 10
5.312219074370057
 20
-4.296573354758902
 10
5.252330944890285
 20
-4.329489937640226
 10
5.194242037086841
 20
-4.36480810118804
 10
5.138808494690252
 20
-4.40202900154284
 10
5.086886461431042
 20
-4.440653794845117
 10
5.039332081039736
 20
-4.480183637235355
 10
4.99679047385316
 20
-4.520293288429759
 10
4.959062666633339
 20
-4.561351922447379
 10
4.925738662748603
 20
-4.603902316882984
 10
4.896408465567269
 20
-4.648487249331329
 10
4.870662078457662
 20
-4.69564949738718
 10
4.848089504788109
 20
-4.745931838645295
 10
4.828280747926928
 20
-4.799877050700449
 10
4.810825811242454
 20
-4.858027911147389
 10
4.795401030190086
 20
-4.920679353130824
 10
4.782028068573575
 20
-4.987134931995167
 10
4.770814922283744
 20
-5.056450358634793
 10
4.761869587211426
 20
-5.12768134394405
 10
4.755300059247449
 20
-5.1998835988173
 10
4.751214334282636
 20
-5.272112834148907
 10
4.749720408207824
 20
-5.343424760833218
 10
4.750926276913835
 20
-5.412875089764603
 10
4.75493543527649
 20
-5.479694899485493
 10
4.761833374111567
 20
-5.543816739130593
 10
4.771701083219838
 20
-5.605348525482681
 10
4.784619552402059
 20
-5.664398175324536
 10
4.800669771459006
 20
-5.721073605438943
 10
4.81993273019145
 20
-5.775482732608682
 10
4.842489418400152
 20
-5.827733473616533
 10
4.868420825885882
 20
-5.877933745245271
 10
4.89777644578312
 20
-5.926195961862512
 10
4.930479784561214
 20
-5.972650528175175
 10
4.96642285202321
 20
-6.017432346475039
 10
5.005497657972171
 20
-6.060676319053849
 10
5.047596212211143
 20
-6.102517348203384
 10
5.092610524543182
 20
-6.143090336215386
 10
5.14043260477135
 20
-6.182530185381625
 10
5.190954462698693
 20
-6.220971797993867
 10
5.244068108128272
 20
-6.258455646142585
 10
5.299665550863139
 20
-6.294644481113136
 10
5.357638800706347
 20
-6.329106623989611
 10
5.41787986746095
 20
-6.361410395856081
 10
5.480280760930007
 20
-6.391124117796627
 10
5.544733490916563
 20
-6.417816110895328
 10
5.611130067223674
 20
-6.441054696236259
 10
5.679362499654395
 20
-6.460408194903507
 10
5.749250803598176
 20
-6.475575330723943
 10
5.820327016790006
 20
-6.486776438495642
 10
5.892051182551274
 20
-6.494362255759453
 10
5.963883344203377
 20
-6.498683520056253
 10
6.035283545067693
 20
-6.500090968926901
 10
6.105711828465615
 20
-6.498935339912261
 10
6.174628237718533
 20
-6.495567370553198
 10
6.241492816147832
 20
-6.490337798390577
 10
6.305869098629283
 20
-6.483529911502921
 10
6.367734586256215
 20
-6.475157200119413
 10
6.427170271676335
 20
-6.465165705006882
 10
6.484257147537356
 20
-6.453501466932177
 10
6.539076206486978
 20
-6.440110526662132
 10
6.591708441172912
 20
-6.424938924963583
 10
6.642234844242874
 20
-6.407932702603376
 10
6.690736408344568
 20
-6.389037900348339
 10
6.737276127759541
 20
-6.368205055427787
 10
6.781845003304724
 20
-6.345402690920896
 10
6.82441603743087
 20
-6.320603826369318
 10
6.864962232588755
 20
-6.293781481314698
 10
6.903456591229133
 20
-6.264908675298682
 10
6.939872115802771
 20
-6.233958427862916
 10
6.974181808760429
 20
-6.200903758549057
 10
7.006358672552877
 20
-6.165717686898745
 10
7.036389208405502
 20
-6.12837323273422
 10
7.064313912642138
 20
-6.088843417000078
 10
7.090186780361282
 20
-6.047101260921516
 10
7.114061806661389
 20
-6.003119785723719
 10
7.135992986640946
 20
-5.956872012631884
 10
7.156034315398422
 20
-5.908330962871201
 10
7.174239788032286
 20
-5.857469657666855
 10
7.190663399641021
 20
-5.804261118244036
 10
7.205390643412844
 20
-5.748678365547346
 10
7.218633004895018
 20
-5.690694419399034
 10
7.230633467724555
 20
-5.630282299340731
 10
7.241635015538461
 20
-5.567415024914091
 10
7.251880631973746
 20
-5.502065615660776
 10
7.261613300667422
 20
-5.434207091122414
 10
7.271076005256494
 20
-5.363812470840664
 10
7.280511729377975
 20
-5.290854774357168
 10
7.290104960080906
 20
-5.215428430189674
 10
7.299806198062432
 20
-5.138113502760268
 10
7.309507447431716
 20
-5.059611465467136
 10
7.319100712297942
 20
-4.980623791708466
 10
7.328477996770269
 20
-4.901851954882444
 10
7.337531304957881
 20
-4.823997428387252
 10
7.34615264096994
 20
-4.747761685621076
 10
7.35423400891563
 20
-4.673846199982098
 10
7.361725909492081
 20
-4.602826539429952
 10
7.368812829748335
 20
-4.534774650170029
 10
7.375737753321415
 20
-4.469636572969172
 10
7.382743663848319
 20
-4.407358348594219
 10
7.390073544966064
 20
-4.347886017812006
 10
7.39797038031166
 20
-4.291165621389368
 10
7.406677153522119
 20
-4.237143200093153
 10
7.416436848234447
 20
-4.185764794690194
 10
7.427492447136682
 20
-4.136864030176769
 10
7.440086929120925
 20
-4.089824868466902
 10
7.454463272130301
 20
-4.043918855704057
 10
7.470864454107951
 20
-3.998417538031692
 10
7.489533452996987
 20
-3.952592461593273
 10
7.510713246740548
 20
-3.905715172532263
 10
7.534646813281755
 20
-3.857057216992122
 10
7.561577130563732
 20
-3.805890141116317
 10
7.591801172577069
 20
-3.751678846229789
 10
7.625831897502161
 20
-3.694661654383438
 10
7.664236259566841
 20
-3.635270242809635
 10
7.707581212998977
 20
-3.573936288740759
 10
7.756433712026414
 20
-3.511091469409194
 10
7.811360710876995
 20
-3.44716746204731
 10
7.87292916377857
 20
-3.382595943887484
 10
7.941706024958993
 20
-3.317808592162103
 10
8.018033267171178
 20
-3.253237083822944
 10
8.101352937268318
 20
-3.189313094699442
 10
8.190882100628673
 20
-3.12646830034042
 10
8.285837822630501
 20
-3.065134376294721
 10
8.385437168652067
 20
-3.005742998111186
 10
8.488897204071621
 20
-2.948725841338641
 10
8.595434994267437
 20
-2.894514581525924
 10
8.704267604617758
 20
-2.84354089422187
 10
8.81470659192319
 20
-2.796200481872618
 10
8.926441478673611
 20
-2.75274515451351
 10
9.039256278781266
 20
-2.713390749077194
 10
9.152935006158363
 20
-2.678353102496314
 10
9.26726167471714
 20
-2.647848051703519
 10
9.382020298369816
 20
-2.622091433631446
 10
9.496994891028617
 20
-2.601299085212755
 10
9.611969466605771
 20
-2.585686843380082
 10
9.726741539211593
 20
-2.575425579038444
 10
9.841162623748745
 20
-2.57050629898231
 10
9.955097735317993
 20
-2.570875043978515
 10
10.06841188902009
 20
-2.57647785479391
 10
10.18097009995581
 20
-2.58726077219532
 10
10.2926373832259
 20
-2.603169836949589
 10
10.40327875393111
 20
-2.62415108982356
 10
10.51275922717222
 20
-2.65015057158406
 10
10.62088082234496
 20
-2.681069356689711
 10
10.72719357602498
 20
-2.716628654366223
 10
10.83118452908288
 20
-2.756504707531085
 10
10.93234072238931
 20
-2.80037375910178
 10
11.03014919681489
 20
-2.847912051995811
 10
11.12409699323024
 20
-2.898795829130649
 10
11.21367115250599
 20
-2.952701333423791
 10
11.29835871551276
 20
-3.009304807792723
 10
11.37774256209596
 20
-3.068177606504634
 10
11.45178892800015
 20
-3.128471529225495
 10
11.52055988794469
 20
-3.189233486970986
 10
11.5841175166489
 20
-3.249510390756781
 10
11.64252388883214
 20
-3.308349151598544
 10
11.69584107921375
 20
-3.364796680511958
 10
11.74413116251309
 20
-3.417899888512692
 10
11.7874562134495
 20
-3.466705686616425
 10
11.82596044623308
 20
-3.510502366887152
 10
11.86011663303704
 20
-3.549543745582158
 10
11.89047968552536
 20
-3.584325020007056
 10
11.91760451536199
 20
-3.615341387467455
 10
11.9420460342109
 20
-3.64308804526896
 10
11.96435915373607
 20
-3.668060190717198
 10
11.98509878560146
 20
-3.690753021117764
 10
12.00481984147103
 20
-3.711661733776279
 10
12.02396830284653
 20
-3.731201389076198
 10
12.04255443058074
 20
-3.74946649971241
 10
12.06047955536423
 20
-3.766471441457658
 10
12.07764500788756
 20
-3.782230590084663
 10
12.09395211884127
 20
-3.796758321366167
 10
12.10930221891594
 20
-3.810069011074912
 10
12.12359663880211
 20
-3.822177034983632
 10
12.13673670919035
 20
-3.833096768865066
 10
12.14868099426601
 20
-3.842858127312228
 10
12.15961699219359
 20
-3.851553180199268
 10
12.16978943463236
 20
-3.859289536220619
 10
12.17944305324161
 20
-3.866174804070706
 10
12.18882257968064
 20
-3.872316592443966
 10
12.19817274560872
 20
-3.877822510034829
 10
12.20773828268514
 20
-3.882800165537722
 10
12.2177639225692
 20
-3.887357167647082
 10
12.22852213135283
 20
-3.891571777537676
 10
12.24039631285873
 20
-3.89540486630567
 10
12.25379760534223
 20
-3.898787957527551
 10
12.26913714705867
 20
-3.901652574779832
 10
12.28682607626341
 20
-3.903930241639
 10
12.30727553121179
 20
-3.905552481681564
 10
12.33089665015915
 20
-3.906450818484025
 10
12.35810057136083
 20
-3.906556775622878
 10
12.38913038806111
 20
-3.905836115166967
 10
12.42355701345997
 20
-3.90439155315449
 10
12.46078331574632
 20
-3.902360044115991
 10
12.50021216310906
 20
-3.899878542582018
 10
12.54124642373709
 20
-3.897084003083116
 10
12.58328896581933
 20
-3.894113380149826
 10
12.62574265754468
 20
-3.891103628312696
 10
12.66801036710204
 20
-3.888191702102258
 10
12.70959611547201
 20
-3.88548031727613
 10
12.75040853480193
 20
-3.882935234500208
 10
12.7904574100308
 20
-3.880487975667441
 10
12.82975252609766
 20
-3.878070062670787
 10
12.86830366794153
 20
-3.875613017403201
 10
12.90612062050142
 20
-3.873048361757635
 10
12.94321316871636
 20
-3.870307617627052
 10
12.97959109752537
 20
-3.867322306904413
 10
13.01521524771826
 20
-3.86404025603437
 10
13.04985068348805
 20
-3.860474509668422
 10
13.08321352487854
 20
-3.856654417009763
 10
13.11501989193354
 20
-3.852609327261593
 10
13.14498590469686
 20
-3.848368589627111
 10
13.17282768321232
 20
-3.843961553309518
 10
13.19826134752371
 20
-3.839417567512012
 10
13.22100301767484
 20
-3.834765981437784
 10
13.24087649264083
 20
-3.830005165697916
 10
13.25813628712204
 20
-3.825009576534974
 10
13.27314459475009
 20
-3.819622691599415
 10
13.28626360915666
 20
-3.813687988541684
 10
13.29785552397339
 20
-3.80704894501222
 10
13.30828253283195
 20
-3.799549038661482
 10
13.31790682936397
 20
-3.791031747139915
 10
13.32709060720112
 20
-3.781340548097966
 10
13.33616016763058
 20
-3.770320549697363
 10
13.34529824256179
 20
-3.757823382145015
 10
13.35465167155969
 20
-3.743702306159092
 10
13.36436729418924
 20
-3.727810582457773
 10
13.37459195001541
 20
-3.710001471759243
 10
13.38547247860314
 20
-3.690128234781684
 10
13.39715571951741
 20
-3.668044132243267
 10
13.40978851232317
 20
-3.643602424862184
 10
13.42350301205949
 20
-3.616675939211483
 10
13.43837263566192
 20
-3.587215765283723
 10
13.4544561155401
 20
-3.555192558926335
 10
13.4718121841037
 20
-3.520576975986746
 10
13.49049957376237
 20
-3.483339672312395
 10
13.51057701692576
 20
-3.443451303750701
 10
13.53210324600352
 20
-3.400882526149104
 10
13.55513699340532
 20
-3.355603995355026
 10
13.57967825770767
 20
-3.307711908728608
 10
13.60549210215461
 20
-3.257804629680793
 10
13.63228485615705
 20
-3.206606063135231
 10
13.65976284912589
 20
-3.154840114015578
 10
13.68763241047203
 20
-3.103230687245472
 10
13.71559986960638
 20
-3.052501687748574
 10
13.74337155593984
 20
-3.003377020448523
 10
13.77065379888332
 20
-2.956580590268979
 10
13.79719697762945
 20
-2.912656956554255
 10
13.82292767049779
 20
-2.87143329633136
 10
13.84781650558964
 20
-2.832557441047976
 10
13.87183411100629
 20
-2.795677222151779
 10
13.89495111484901
 20
-2.760440471090451
 10
13.91713814521911
 20
-2.72649501931167
 10
13.93836583021788
 20
-2.693488698263109
 10
13.95860479794659
 20
-2.661069339392458
 10
13.97782730970218
 20
-2.628982598651724
 10
13.99601215956403
 20
-2.597365430010272
 10
14.01313977480716
 20
-2.566452611941807
 10
14.02919058270659
 20
-2.536478922920017
 10
14.04414501053733
 20
-2.507679141418618
 10
14.05798348557441
 20
-2.480288045911296
 10
14.07068643509283
 20
-2.454540414871757
 10
14.08223428636763
 20
-2.4306710267737
 10
14.09262214882724
 20
-2.408808683310633
 10
14.10190386051385
 20
-2.38865827905531
 10
14.11014794162309
 20
-2.369818731800284
 10
14.11742291235055
 20
-2.351888959338115
 10
14.12379729289187
 20
-2.334467879461366
 10
14.12933960344265
 20
-2.31715440996259
 10
14.13411836419852
 20
-2.299547468634345
 10
14.13820209535508
 20
-2.281245973269192
 10
14.14164789707536
 20
-2.261901014373258
 10
14.14446718939196
 20
-2.241372373306919
 10
14.14665997230486
 20
-2.219572004144124
 10
14.14822624581409
 20
-2.196411860958827
 10
14.14916600991963
 20
-2.171803897824972
 10
14.14947926462148
 20
-2.145660068816507
 10
14.14916600991965
 20
-2.117892328007381
 10
14.14822624581413
 20
-2.088412629471545
 10
14.14645766482359
 20
-2.056930755387348
 10
14.14284872954137
 20
-2.022347800350731
 10
14.13902915878467
 20
-2.000000000000003
  0
LINE
  5
129D5
330
124BD
100
AcDbEntity
  8
0
100
AcDbLine
 10
17.83721055899287
 20
-0.0000000000000102
 30
0.0
 11
0.0
 21
-0.0000000000000004
 31
0.0
  0
LINE
  5
129D6
330
124BD
100
AcDbEntity
  8
0
100
AcDbLine
 10
-0.0499999999999998
 20
-19.92061279146069
 30
0.0
 11
-0.0500000000000007
 21
-0.0500000000000003
 31
0.0
  0
LINE
  5
129D7
330
124BD
100
AcDbEntity
  8
0
100
AcDbLine
 10
1.95
 20
-16.75400338455264
 30
0.0
 11
1.949999999999999
 21
-2.000000000000002
 31
0.0
  0
LINE
  5
129D8
330
124BD
100
AcDbEntity
  8
0
100
AcDbLine
 10
3.290984602054752
 20
-13.35929195176411
 30
0.0
 11
3.312712524148903
 21
-13.4287746720607
 31
0.0
  0
LINE
  5
129D9
330
124BD
100
AcDbEntity
  8
0
100
AcDbLine
 10
3.763154005421867
 20
-13.37542483229788
 30
0.0
 11
3.783703826055925
 21
-13.43097962607957
 31
0.0
  0
LINE
  5
129DA
330
124BD
100
AcDbEntity
  8
0
100
AcDbLine
 10
0.5007364333725724
 20
-19.9706127914607
 30
0.0
 11
0.0
 21
-19.97061279146069
 31
0.0
  0
ARC
  5
129DB
330
124BD
100
AcDbEntity
  8
0
100
AcDbCircle
 10
0.0
 20
-19.92061279146069
 30
0.0
 40
0.05
100
AcDbArc
 50
180.0
 51
269.9999999999993
  0
LINE
  5
129DC
330
124BD
100
AcDbEntity
  8
0
100
AcDbLine
 10
2.000313492942171
 20
-17.17179566537861
 30
0.0
 11
1.973447764885654
 21
-17.18203573389097
 31
0.0
  0
LINE
  5
129DD
330
124BD
100
AcDbEntity
  8
0
100
AcDbLine
 10
1.950000000000003
 20
-17.65580228129535
 30
0.0
 11
1.95
 21
-17.19093788708704
 31
0.0
  0
LINE
  5
129DE
330
124BD
100
AcDbEntity
  8
0
100
AcDbLine
 10
1.973447764885654
 20
-17.18203573389097
 30
0.0
 11
1.949999999999994
 21
-17.19093788708704
 31
0.0
  0
LINE
  5
129DF
330
124BD
100
AcDbEntity
  8
0
100
AcDbLine
 10
3.047774561046445
 20
-15.56723060820427
 30
0.0
 11
2.985587033529736
 21
-15.65284748153654
 31
0.0
  0
LINE
  5
129E0
330
124BD
100
AcDbEntity
  8
0
100
AcDbLine
 10
3.075703964973314
 20
-16.04167879117553
 30
0.0
 11
3.030062730832131
 21
-16.09066547659554
 31
0.0
  0
LINE
  5
129E1
330
124BD
100
AcDbEntity
  8
0
100
AcDbLine
 10
2.279815172629612
 20
-17.01674277963088
 30
0.0
 11
2.249441982183829
 21
-17.04149481897833
 31
0.0
  0
LWPOLYLINE
  5
129E2
330
124BD
100
AcDbEntity
  8
0
100
AcDbPolyline
 90
        8
 70
     0
 43
0.0
 10
2.309962696634656
 20
-16.59078898540526
 10
2.251166580656279
 20
-16.63196474431567
 10
2.196233304075312
 20
-16.66647857303998
 10
2.143685711066073
 20
-16.69485536141186
 10
2.092046645802874
 20
-16.71761999926497
 10
2.039838952460037
 20
-16.73529737643297
 10
1.985585475211877
 20
-16.74841238274955
 10
1.950000000000001
 20
-16.75400338455264
  0
LINE
  5
129EC
330
124BD
100
AcDbEntity
  8
0
100
AcDbLine
 10
2.083679949036899
 20
-17.13829015577529
 30
0.0
 11
2.056075323617958
 21
-17.14994546363853
 31
0.0
  0
LINE
  5
129ED
330
124BD
100
AcDbEntity
  8
0
100
AcDbLine
 10
2.028285671798129
 20
-17.16102538800517
 30
0.0
 11
2.000313492942171
 21
-17.17179566537861
 31
0.0
  0
LINE
  5
129EE
330
124BD
100
AcDbEntity
  8
0
100
AcDbLine
 10
2.056075323617958
 20
-17.14994546363853
 30
0.0
 11
2.028285671798129
 21
-17.16102538800517
 31
0.0
  0
LINE
  5
129EF
330
124BD
100
AcDbEntity
  8
0
100
AcDbLine
 10
2.111239088918938
 20
-17.12576780627174
 30
0.0
 11
2.083679949036899
 21
-17.13829015577529
 31
0.0
  0
LINE
  5
129F0
330
124BD
100
AcDbEntity
  8
0
100
AcDbLine
 10
2.138775166961752
 20
-17.11214622529346
 30
0.0
 11
2.111239088918938
 21
-17.12576780627174
 31
0.0
  0
LINE
  5
129F1
330
124BD
100
AcDbEntity
  8
0
100
AcDbLine
 10
2.166251758815312
 20
-17.09722330838225
 30
0.0
 11
2.138775166961752
 21
-17.11214622529346
 31
0.0
  0
LINE
  5
129F2
330
124BD
100
AcDbEntity
  8
0
100
AcDbLine
 10
2.221010407920213
 20
-17.06255088135845
 30
0.0
 11
2.193609725269697
 21
-17.08080688507547
 31
0.0
  0
LINE
  5
129F3
330
124BD
100
AcDbEntity
  8
0
100
AcDbLine
 10
2.249441982183829
 20
-17.04149481897833
 30
0.0
 11
2.221010407920213
 21
-17.06255088135845
 31
0.0
  0
LINE
  5
129F4
330
124BD
100
AcDbEntity
  8
0
100
AcDbLine
 10
2.193609725269697
 20
-17.08080688507547
 30
0.0
 11
2.166251758815312
 21
-17.09722330838225
 31
0.0
  0
LINE
  5
129F5
330
124BD
100
AcDbEntity
  8
0
100
AcDbLine
 10
2.939014648132772
 20
-16.19608217241992
 30
0.0
 11
2.893287632888849
 21
-16.25268318771306
 31
0.0
  0
LINE
  5
129F6
330
124BD
100
AcDbEntity
  8
0
100
AcDbLine
 10
2.581256659710277
 20
-16.22395422647228
 30
0.0
 11
2.536006797106304
 21
-16.28938148808004
 31
0.0
  0
LINE
  5
129F7
330
124BD
100
AcDbEntity
  8
0
100
AcDbLine
 10
2.665789293749341
 20
-16.55997118558936
 30
0.0
 11
2.621689313771266
 21
-16.62077729562471
 31
0.0
  0
LINE
  5
129F8
330
124BD
100
AcDbEntity
  8
0
100
AcDbLine
 10
2.578436955579554
 20
-16.67950607129839
 30
0.0
 11
2.53633633327847
 21
-16.73524960048793
 31
0.0
  0
LINE
  5
129F9
330
124BD
100
AcDbEntity
  8
0
100
AcDbLine
 10
2.456488571560513
 20
-16.83493143101335
 30
0.0
 11
2.418444922438585
 21
-16.87891494168763
 31
0.0
  0
LINE
  5
129FA
330
124BD
100
AcDbEntity
  8
0
100
AcDbLine
 10
2.346100131143663
 20
-16.95555006658349
 30
0.0
 11
2.312107419348406
 21
-16.98809383738585
 31
0.0
  0
LINE
  5
129FB
330
124BD
100
AcDbEntity
  8
0
100
AcDbLine
 10
2.312107419348406
 20
-16.98809383738585
 30
0.0
 11
2.279815172629612
 21
-17.01674277963088
 31
0.0
  0
LINE
  5
129FC
330
124BD
100
AcDbEntity
  8
0
100
AcDbLine
 10
2.381601331251384
 20
-16.91914108648617
 30
0.0
 11
2.346100131143663
 21
-16.95555006658349
 31
0.0
  0
LINE
  5
129FD
330
124BD
100
AcDbEntity
  8
0
100
AcDbLine
 10
2.418444922438585
 20
-16.87891494168763
 30
0.0
 11
2.381601331251384
 21
-16.91914108648617
 31
0.0
  0
LINE
  5
129FE
330
124BD
100
AcDbEntity
  8
0
100
AcDbLine
 10
2.495701025505758
 20
-16.78714769218023
 30
0.0
 11
2.456488571560513
 21
-16.83493143101335
 31
0.0
  0
LINE
  5
129FF
330
124BD
100
AcDbEntity
  8
0
100
AcDbLine
 10
2.53633633327847
 20
-16.73524960048793
 30
0.0
 11
2.495701025505758
 21
-16.78714769218023
 31
0.0
  0
LINE
  5
12A00
330
124BD
100
AcDbEntity
  8
0
100
AcDbLine
 10
2.456947883380281
 20
-16.40309041655662
 30
0.0
 11
2.423166572859279
 21
-16.45078340571734
 31
0.0
  0
LINE
  5
12A01
330
124BD
100
AcDbEntity
  8
0
100
AcDbLine
 10
2.344895240675774
 20
-16.55386695993025
 30
0.0
 11
2.325994509975527
 21
-16.57507138156613
 31
0.0
  0
LINE
  5
12A02
330
124BD
100
AcDbEntity
  8
0
100
AcDbLine
 10
2.325994509975527
 20
-16.57507138156613
 30
0.0
 11
2.309962696634655
 21
-16.59078898540526
 31
0.0
  0
LINE
  5
12A03
330
124BD
100
AcDbEntity
  8
0
100
AcDbLine
 10
2.367169596003921
 20
-16.52637473961334
 30
0.0
 11
2.344895240675774
 21
-16.55386695993025
 31
0.0
  0
LINE
  5
12A04
330
124BD
100
AcDbEntity
  8
0
100
AcDbLine
 10
2.423166572859279
 20
-16.45078340571734
 30
0.0
 11
2.393235853633652
 21
-16.49197629302093
 31
0.0
  0
LINE
  5
12A05
330
124BD
100
AcDbEntity
  8
0
100
AcDbLine
 10
2.393235853633652
 20
-16.49197629302093
 30
0.0
 11
2.367169596003921
 21
-16.52637473961334
 31
0.0
  0
LINE
  5
12A06
330
124BD
100
AcDbEntity
  8
0
100
AcDbLine
 10
2.494565914896132
 20
-16.34919166439283
 30
0.0
 11
2.456947883380281
 21
-16.40309041655662
 31
0.0
  0
LINE
  5
12A07
330
124BD
100
AcDbEntity
  8
0
100
AcDbLine
 10
2.536006797106304
 20
-16.28938148808004
 30
0.0
 11
2.494565914896132
 21
-16.34919166439283
 31
0.0
  0
LINE
  5
12A08
330
124BD
100
AcDbEntity
  8
0
100
AcDbLine
 10
2.621689313771266
 20
-16.62077729562471
 30
0.0
 11
2.578436955579554
 21
-16.67950607129839
 31
0.0
  0
LINE
  5
12A09
330
124BD
100
AcDbEntity
  8
0
100
AcDbLine
 10
2.847304750420644
 20
-16.3118985172397
 30
0.0
 11
2.801335467654801
 21
-16.37316836488355
 31
0.0
  0
LINE
  5
12A0A
330
124BD
100
AcDbEntity
  8
0
100
AcDbLine
 10
2.710515015505045
 20
-16.49792904169727
 30
0.0
 11
2.665789293749341
 21
-16.55997118558936
 31
0.0
  0
LINE
  5
12A0B
330
124BD
100
AcDbEntity
  8
0
100
AcDbLine
 10
2.755719313547075
 20
-16.43542661697978
 30
0.0
 11
2.710515015505045
 21
-16.49792904169727
 31
0.0
  0
LINE
  5
12A0C
330
124BD
100
AcDbEntity
  8
0
100
AcDbLine
 10
2.801335467654801
 20
-16.37316836488355
 30
0.0
 11
2.755719313547075
 21
-16.43542661697978
 31
0.0
  0
LINE
  5
12A0D
330
124BD
100
AcDbEntity
  8
0
100
AcDbLine
 10
2.893287632888849
 20
-16.25268318771306
 30
0.0
 11
2.847304750420644
 21
-16.3118985172397
 31
0.0
  0
LINE
  5
12A0E
330
124BD
100
AcDbEntity
  8
0
100
AcDbLine
 10
2.683127844897516
 20
-16.07742580278811
 30
0.0
 11
2.630301632407519
 21
-16.15320421842362
 31
0.0
  0
LINE
  5
12A0F
330
124BD
100
AcDbEntity
  8
0
100
AcDbLine
 10
2.630301632407519
 20
-16.15320421842362
 30
0.0
 11
2.581256659710277
 21
-16.22395422647228
 31
0.0
  0
LINE
  5
12A10
330
124BD
100
AcDbEntity
  8
0
100
AcDbLine
 10
2.922800321556881
 20
-15.73986710300712
 30
0.0
 11
2.860287735917559
 21
-15.82706210924178
 31
0.0
  0
LINE
  5
12A11
330
124BD
100
AcDbEntity
  8
0
100
AcDbLine
 10
2.860287735917559
 20
-15.82706210924178
 30
0.0
 11
2.798922587401442
 21
-15.91320513686632
 31
0.0
  0
LINE
  5
12A12
330
124BD
100
AcDbEntity
  8
0
100
AcDbLine
 10
2.739578186798201
 20
-15.9970688225065
 30
0.0
 11
2.683127844897516
 21
-16.07742580278811
 31
0.0
  0
LINE
  5
12A13
330
124BD
100
AcDbEntity
  8
0
100
AcDbLine
 10
2.798922587401442
 20
-15.91320513686632
 30
0.0
 11
2.739578186798201
 21
-15.9970688225065
 31
0.0
  0
LINE
  5
12A14
330
124BD
100
AcDbEntity
  8
0
100
AcDbLine
 10
3.030062730832131
 20
-16.09066547659554
 30
0.0
 11
2.984553322482522
 21
-16.14210687855775
 31
0.0
  0
LINE
  5
12A15
330
124BD
100
AcDbEntity
  8
0
100
AcDbLine
 10
2.984553322482522
 20
-16.14210687855775
 30
0.0
 11
2.939014648132772
 21
-16.19608217241992
 31
0.0
  0
LINE
  5
12A16
330
124BD
100
AcDbEntity
  8
0
100
AcDbLine
 10
2.985587033529736
 20
-15.65284748153654
 30
0.0
 11
2.922800321556881
 21
-15.73986710300712
 31
0.0
  0
LINE
  5
12A17
330
124BD
100
AcDbEntity
  8
0
100
AcDbLine
 10
3.274006044618708
 20
-15.26182244842474
 30
0.0
 11
3.222126358195545
 21
-15.33088068386478
 31
0.0
  0
LINE
  5
12A18
330
124BD
100
AcDbEntity
  8
0
100
AcDbLine
 10
4.078212338735937
 20
-15.18483590744064
 30
0.0
 11
4.077307358970166
 21
-15.29048402863027
 31
0.0
  0
LINE
  5
12A19
330
124BD
100
AcDbEntity
  8
0
100
AcDbLine
 10
3.836559455949355
 20
-15.57873004202738
 30
0.0
 11
3.81325560782872
 21
-15.58502606896308
 31
0.0
  0
LINE
  5
12A1A
330
124BD
100
AcDbEntity
  8
0
100
AcDbLine
 10
3.446196380959605
 20
-15.74149047084007
 30
0.0
 11
3.401223964382612
 21
-15.76945134785689
 31
0.0
  0
LINE
  5
12A1B
330
124BD
100
AcDbEntity
  8
0
100
AcDbLine
 10
3.26207389272951
 20
-15.86978507918086
 30
0.0
 11
3.214920623520665
 21
-15.908974801456
 31
0.0
  0
LINE
  5
12A1C
330
124BD
100
AcDbEntity
  8
0
100
AcDbLine
 10
3.121637216619387
 20
-15.99508356917173
 30
0.0
 11
3.075703964973314
 21
-16.04167879117553
 31
0.0
  0
LINE
  5
12A1D
330
124BD
100
AcDbEntity
  8
0
100
AcDbLine
 10
3.168017633155827
 20
-15.95083571074633
 30
0.0
 11
3.121637216619387
 21
-15.99508356917173
 31
0.0
  0
LINE
  5
12A1E
330
124BD
100
AcDbEntity
  8
0
100
AcDbLine
 10
3.214920623520665
 20
-15.908974801456
 30
0.0
 11
3.168017633155827
 21
-15.95083571074633
 31
0.0
  0
LINE
  5
12A1F
330
124BD
100
AcDbEntity
  8
0
100
AcDbLine
 10
3.35543564105006
 20
-15.80008764810456
 30
0.0
 11
3.308995226202405
 21
-15.83350006394756
 31
0.0
  0
LINE
  5
12A20
330
124BD
100
AcDbEntity
  8
0
100
AcDbLine
 10
3.308995226202405
 20
-15.83350006394756
 30
0.0
 11
3.26207389272951
 21
-15.86978507918086
 31
0.0
  0
LINE
  5
12A21
330
124BD
100
AcDbEntity
  8
0
100
AcDbLine
 10
3.401223964382612
 20
-15.76945134785689
 30
0.0
 11
3.35543564105006
 21
-15.80008764810456
 31
0.0
  0
LINE
  5
12A22
330
124BD
100
AcDbEntity
  8
0
100
AcDbLine
 10
3.166858819552757
 20
-15.40511455945154
 30
0.0
 11
3.108489593317344
 21
-15.48424384638453
 31
0.0
  0
LINE
  5
12A23
330
124BD
100
AcDbEntity
  8
0
100
AcDbLine
 10
3.108489593317344
 20
-15.48424384638453
 30
0.0
 11
3.047774561046445
 21
-15.56723060820427
 31
0.0
  0
LINE
  5
12A24
330
124BD
100
AcDbEntity
  8
0
100
AcDbLine
 10
3.222126358195545
 20
-15.33088068386478
 30
0.0
 11
3.166858819552757
 21
-15.40511455945154
 31
0.0
  0
LINE
  5
12A25
330
124BD
100
AcDbEntity
  8
0
100
AcDbLine
 10
3.65344715274444
 20
-15.63819175751217
 30
0.0
 11
3.614896629282711
 21
-15.65431626949496
 31
0.0
  0
LINE
  5
12A26
330
124BD
100
AcDbEntity
  8
0
100
AcDbLine
 10
3.490197987936682
 20
-15.71610063206551
 30
0.0
 11
3.446196380959605
 21
-15.74149047084007
 31
0.0
  0
LINE
  5
12A27
330
124BD
100
AcDbEntity
  8
0
100
AcDbLine
 10
3.533084836821853
 20
-15.69317420636572
 30
0.0
 11
3.490197987936682
 21
-15.71610063206551
 31
0.0
  0
LINE
  5
12A28
330
124BD
100
AcDbEntity
  8
0
100
AcDbLine
 10
3.614896629282711
 20
-15.65431626949496
 30
0.0
 11
3.574714676217592
 21
-15.67260668171573
 31
0.0
  0
LINE
  5
12A29
330
124BD
100
AcDbEntity
  8
0
100
AcDbLine
 10
3.574714676217592
 20
-15.67260668171573
 30
0.0
 11
3.533084836821853
 21
-15.69317420636572
 31
0.0
  0
LINE
  5
12A2A
330
124BD
100
AcDbEntity
  8
0
100
AcDbLine
 10
3.724805092330582
 20
-15.61189753180098
 30
0.0
 11
3.690162583139793
 21
-15.62410085902184
 31
0.0
  0
LINE
  5
12A2B
330
124BD
100
AcDbEntity
  8
0
100
AcDbLine
 10
3.690162583139793
 20
-15.62410085902184
 30
0.0
 11
3.65344715274444
 21
-15.63819175751217
 31
0.0
  0
LINE
  5
12A2C
330
124BD
100
AcDbEntity
  8
0
100
AcDbLine
 10
3.786702741665862
 20
-15.59252192346527
 30
0.0
 11
3.757093956631672
 21
-15.60142547586796
 31
0.0
  0
LINE
  5
12A2D
330
124BD
100
AcDbEntity
  8
0
100
AcDbLine
 10
3.81325560782872
 20
-15.58502606896308
 30
0.0
 11
3.786702741665862
 21
-15.59252192346527
 31
0.0
  0
LINE
  5
12A2E
330
124BD
100
AcDbEntity
  8
0
100
AcDbLine
 10
3.757093956631672
 20
-15.60142547586796
 30
0.0
 11
3.724805092330582
 21
-15.61189753180098
 31
0.0
  0
LINE
  5
12A2F
330
124BD
100
AcDbEntity
  8
0
100
AcDbLine
 10
4.045169414227336
 20
-15.39199729630873
 30
0.0
 11
4.01469489432087
 21
-15.42926181988979
 31
0.0
  0
LINE
  5
12A30
330
124BD
100
AcDbEntity
  8
0
100
AcDbLine
 10
3.857431310319768
 20
-15.5732160535433
 30
0.0
 11
3.836559455949355
 21
-15.57873004202738
 31
0.0
  0
LINE
  5
12A31
330
124BD
100
AcDbEntity
  8
0
100
AcDbLine
 10
3.876952823987931
 20
-15.56814959152308
 30
0.0
 11
3.857431310319768
 21
-15.5732160535433
 31
0.0
  0
LINE
  5
12A32
330
124BD
100
AcDbEntity
  8
0
100
AcDbLine
 10
3.895417191396761
 20
-15.56344209582739
 30
0.0
 11
3.876952823987931
 21
-15.56814959152308
 31
0.0
  0
LINE
  5
12A33
330
124BD
100
AcDbEntity
  8
0
100
AcDbLine
 10
3.912888317797019
 20
-15.55906493888987
 30
0.0
 11
3.895417191396761
 21
-15.56344209582739
 31
0.0
  0
LINE
  5
12A34
330
124BD
100
AcDbEntity
  8
0
100
AcDbLine
 10
3.929423803649894
 20
-15.55499043854656
 30
0.0
 11
3.912888317797019
 21
-15.55906493888987
 31
0.0
  0
LINE
  5
12A35
330
124BD
100
AcDbEntity
  8
0
100
AcDbLine
 10
3.945076162638551
 20
-15.55119155545552
 30
0.0
 11
3.929423803649894
 21
-15.55499043854656
 31
0.0
  0
LINE
  5
12A36
330
124BD
100
AcDbEntity
  8
0
100
AcDbLine
 10
3.964134279328115
 20
-15.52466007590693
 30
0.0
 11
3.958239295711852
 21
-15.5410343004622
 31
0.0
  0
LINE
  5
12A37
330
124BD
100
AcDbEntity
  8
0
100
AcDbLine
 10
3.958239295711852
 20
-15.5410343004622
 30
0.0
 11
3.955665938525505
 21
-15.54865461444694
 31
0.0
  0
LINE
  5
12A38
330
124BD
100
AcDbEntity
  8
0
100
AcDbLine
 10
3.9741790891335
 20
-15.50017783126953
 30
0.0
 11
3.964134279328115
 21
-15.52466007590693
 31
0.0
  0
LINE
  5
12A39
330
124BD
100
AcDbEntity
  8
0
100
AcDbLine
 10
3.990556815312594
 20
-15.46733794378357
 30
0.0
 11
3.9741790891335
 21
-15.50017783126953
 31
0.0
  0
LINE
  5
12A3A
330
124BD
100
AcDbEntity
  8
0
100
AcDbLine
 10
4.01469489432087
 20
-15.42926181988979
 30
0.0
 11
3.990556815312594
 21
-15.46733794378357
 31
0.0
  0
LINE
  5
12A3B
330
124BD
100
AcDbEntity
  8
0
100
AcDbLine
 10
3.955665938525505
 20
-15.54865461444694
 30
0.0
 11
3.945076162638551
 21
-15.55119155545552
 31
0.0
  0
LINE
  5
12A3C
330
124BD
100
AcDbEntity
  8
0
100
AcDbLine
 10
4.077307358970166
 20
-15.29048402863027
 30
0.0
 11
4.076324770102598
 21
-15.36201911488022
 31
0.0
  0
LINE
  5
12A3D
330
124BD
100
AcDbEntity
  8
0
100
AcDbLine
 10
4.076324770102598
 20
-15.36201911488022
 30
0.0
 11
4.045169414227336
 21
-15.39199729630873
 31
0.0
  0
LINE
  5
12A3E
330
124BD
100
AcDbEntity
  8
0
100
AcDbLine
 10
3.804988691237802
 20
-13.48302648088542
 30
0.0
 11
3.826761099843311
 21
-13.53161590351019
 31
0.0
  0
LINE
  5
12A3F
330
124BD
100
AcDbEntity
  8
0
100
AcDbLine
 10
3.676937686506033
 20
-14.30950510588106
 30
0.0
 11
3.674894392711943
 21
-14.35194639018256
 31
0.0
  0
LINE
  5
12A40
330
124BD
100
AcDbEntity
  8
0
100
AcDbLine
 10
3.444271560225889
 20
-15.03916194584718
 30
0.0
 11
3.407630636625842
 21
-15.08660960184266
 31
0.0
  0
LINE
  5
12A41
330
124BD
100
AcDbEntity
  8
0
100
AcDbLine
 10
3.32232914342779
 20
-15.1980306550172
 30
0.0
 11
3.274006044618708
 21
-15.26182244842474
 31
0.0
  0
LINE
  5
12A42
330
124BD
100
AcDbEntity
  8
0
100
AcDbLine
 10
3.407630636625842
 20
-15.08660960184266
 30
0.0
 11
3.366926919228323
 21
-15.13959610552792
 31
0.0
  0
LINE
  5
12A43
330
124BD
100
AcDbEntity
  8
0
100
AcDbLine
 10
3.366926919228323
 20
-15.13959610552792
 30
0.0
 11
3.32232914342779
 21
-15.1980306550172
 31
0.0
  0
LINE
  5
12A44
330
124BD
100
AcDbEntity
  8
0
100
AcDbLine
 10
3.611288590905267
 20
-14.80481448578366
 30
0.0
 11
3.606594020861734
 21
-14.81624239540284
 31
0.0
  0
LINE
  5
12A45
330
124BD
100
AcDbEntity
  8
0
100
AcDbLine
 10
3.476680954633998
 20
-14.99734393942725
 30
0.0
 11
3.444271560225889
 21
-15.03916194584718
 31
0.0
  0
LINE
  5
12A46
330
124BD
100
AcDbEntity
  8
0
100
AcDbLine
 10
3.50469008445571
 20
-14.96124638446863
 30
0.0
 11
3.476680954633998
 21
-14.99734393942725
 31
0.0
  0
LINE
  5
12A47
330
124BD
100
AcDbEntity
  8
0
100
AcDbLine
 10
3.528240543730692
 20
-14.93081739530182
 30
0.0
 11
3.50469008445571
 21
-14.96124638446863
 31
0.0
  0
LINE
  5
12A48
330
124BD
100
AcDbEntity
  8
0
100
AcDbLine
 10
3.547715244235181
 20
-14.90543433603626
 30
0.0
 11
3.528240543730692
 21
-14.93081739530182
 31
0.0
  0
LINE
  5
12A49
330
124BD
100
AcDbEntity
  8
0
100
AcDbLine
 10
3.601215807562692
 20
-14.82742166762324
 30
0.0
 11
3.594721282755305
 21
-14.83905492906995
 31
0.0
  0
LINE
  5
12A4A
330
124BD
100
AcDbEntity
  8
0
100
AcDbLine
 10
3.58661720522922
 20
-14.85190750318878
 30
0.0
 11
3.576410333774081
 21
-14.86674471342555
 31
0.0
  0
LINE
  5
12A4B
330
124BD
100
AcDbEntity
  8
0
100
AcDbLine
 10
3.576410333774081
 20
-14.86674471342555
 30
0.0
 11
3.563607427179519
 21
-14.8843318832261
 31
0.0
  0
LINE
  5
12A4C
330
124BD
100
AcDbEntity
  8
0
100
AcDbLine
 10
3.594721282755305
 20
-14.83905492906995
 30
0.0
 11
3.58661720522922
 21
-14.85190750318878
 31
0.0
  0
LINE
  5
12A4D
330
124BD
100
AcDbEntity
  8
0
100
AcDbLine
 10
3.606594020861734
 20
-14.81624239540284
 30
0.0
 11
3.601215807562692
 21
-14.82742166762324
 31
0.0
  0
LINE
  5
12A4E
330
124BD
100
AcDbEntity
  8
0
100
AcDbLine
 10
3.563607427179519
 20
-14.8843318832261
 30
0.0
 11
3.547715244235181
 21
-14.90543433603626
 31
0.0
  0
LINE
  5
12A4F
330
124BD
100
AcDbEntity
  8
0
100
AcDbLine
 10
3.629958507933055
 20
-14.72938493615052
 30
0.0
 11
3.62643223740236
 21
-14.74820665468634
 31
0.0
  0
LINE
  5
12A50
330
124BD
100
AcDbEntity
  8
0
100
AcDbLine
 10
3.615489894115963
 20
-14.79268609942369
 30
0.0
 11
3.611288590905267
 21
-14.80481448578366
 31
0.0
  0
LINE
  5
12A51
330
124BD
100
AcDbEntity
  8
0
100
AcDbLine
 10
3.61932773395895
 20
-14.77946809380165
 30
0.0
 11
3.615489894115963
 21
-14.79268609942369
 31
0.0
  0
LINE
  5
12A52
330
124BD
100
AcDbEntity
  8
0
100
AcDbLine
 10
3.622931913899371
 20
-14.7647713263963
 30
0.0
 11
3.61932773395895
 21
-14.77946809380165
 31
0.0
  0
LINE
  5
12A53
330
124BD
100
AcDbEntity
  8
0
100
AcDbLine
 10
3.62643223740236
 20
-14.74820665468634
 30
0.0
 11
3.622931913899371
 21
-14.7647713263963
 31
0.0
  0
LINE
  5
12A54
330
124BD
100
AcDbEntity
  8
0
100
AcDbLine
 10
3.646560012599081
 20
-14.62473017933954
 30
0.0
 11
3.641946146713168
 21
-14.65560925387727
 31
0.0
  0
LINE
  5
12A55
330
124BD
100
AcDbEntity
  8
0
100
AcDbLine
 10
3.633640528956592
 20
-14.70791702826758
 30
0.0
 11
3.629958507933055
 21
-14.72938493615052
 31
0.0
  0
LINE
  5
12A56
330
124BD
100
AcDbEntity
  8
0
100
AcDbLine
 10
3.637608103938108
 20
-14.68341378851624
 30
0.0
 11
3.633640528956592
 21
-14.70791702826758
 31
0.0
  0
LINE
  5
12A57
330
124BD
100
AcDbEntity
  8
0
100
AcDbLine
 10
3.641946146713168
 20
-14.65560925387727
 30
0.0
 11
3.637608103938108
 21
-14.68341378851624
 31
0.0
  0
LINE
  5
12A58
330
124BD
100
AcDbEntity
  8
0
100
AcDbLine
 10
3.668882987762298
 20
-14.43646441535124
 30
0.0
 11
3.664983021006042
 21
-14.47746717201917
 31
0.0
  0
LINE
  5
12A59
330
124BD
100
AcDbEntity
  8
0
100
AcDbLine
 10
3.651310167283591
 20
-14.59112649939396
 30
0.0
 11
3.646560012599081
 21
-14.62473017933954
 31
0.0
  0
LINE
  5
12A5A
330
124BD
100
AcDbEntity
  8
0
100
AcDbLine
 10
3.656057076454425
 20
-14.55514814853144
 30
0.0
 11
3.651310167283591
 21
-14.59112649939396
 31
0.0
  0
LINE
  5
12A5B
330
124BD
100
AcDbEntity
  8
0
100
AcDbLine
 10
3.660661205799332
 20
-14.51714506124287
 30
0.0
 11
3.656057076454425
 21
-14.55514814853144
 31
0.0
  0
LINE
  5
12A5C
330
124BD
100
AcDbEntity
  8
0
100
AcDbLine
 10
3.664983021006042
 20
-14.47746717201917
 30
0.0
 11
3.660661205799332
 21
-14.51714506124287
 31
0.0
  0
LINE
  5
12A5D
330
124BD
100
AcDbEntity
  8
0
100
AcDbLine
 10
3.672221571755841
 20
-14.39448672572999
 30
0.0
 11
3.668882987762298
 21
-14.43646441535124
 31
0.0
  0
LINE
  5
12A5E
330
124BD
100
AcDbEntity
  8
0
100
AcDbLine
 10
3.674894392711943
 20
-14.35194639018256
 30
0.0
 11
3.672221571755841
 21
-14.39448672572999
 31
0.0
  0
LINE
  5
12A5F
330
124BD
100
AcDbEntity
  8
0
100
AcDbLine
 10
3.419313786438028
 20
-13.67476730323393
 30
0.0
 11
3.450026801146972
 21
-13.72638816687207
 31
0.0
  0
LINE
  5
12A60
330
124BD
100
AcDbEntity
  8
0
100
AcDbLine
 10
3.312712524148903
 20
-13.4287746720607
 30
0.0
 11
3.336422632329046
 21
-13.49551464845834
 31
0.0
  0
LINE
  5
12A61
330
124BD
100
AcDbEntity
  8
0
100
AcDbLine
 10
3.336422632329046
 20
-13.49551464845834
 30
0.0
 11
3.362114923748237
 21
-13.55905475529034
 31
0.0
  0
LINE
  5
12A62
330
124BD
100
AcDbEntity
  8
0
100
AcDbLine
 10
3.389789395559532
 20
-13.61893786688999
 30
0.0
 11
3.419313786438028
 21
-13.67476730323393
 31
0.0
  0
LINE
  5
12A63
330
124BD
100
AcDbEntity
  8
0
100
AcDbLine
 10
3.362114923748237
 20
-13.55905475529034
 30
0.0
 11
3.389789395559532
 21
-13.61893786688999
 31
0.0
  0
LINE
  5
12A64
330
124BD
100
AcDbEntity
  8
0
100
AcDbLine
 10
3.541362051109395
 20
-13.85505480348427
 30
0.0
 11
3.568894023993024
 21
-13.88889685823177
 31
0.0
  0
LINE
  5
12A65
330
124BD
100
AcDbEntity
  8
0
100
AcDbLine
 10
3.614826981816236
 20
-13.94244402070142
 30
0.0
 11
3.631861911072643
 21
-13.96208007959549
 31
0.0
  0
LINE
  5
12A66
330
124BD
100
AcDbEntity
  8
0
100
AcDbLine
 10
3.593646852133542
 20
-13.91805808123973
 30
0.0
 11
3.614826981816236
 21
-13.94244402070142
 31
0.0
  0
LINE
  5
12A67
330
124BD
100
AcDbEntity
  8
0
100
AcDbLine
 10
3.568894023993024
 20
-13.88889685823177
 30
0.0
 11
3.593646852133542
 21
-13.91805808123973
 31
0.0
  0
LINE
  5
12A68
330
124BD
100
AcDbEntity
  8
0
100
AcDbLine
 10
3.679421252260045
 20
-14.22781588984916
 30
0.0
 11
3.678422843051084
 21
-14.26788692253381
 31
0.0
  0
LINE
  5
12A69
330
124BD
100
AcDbEntity
  8
0
100
AcDbLine
 10
3.678422843051084
 20
-14.26788692253381
 30
0.0
 11
3.676937686506033
 21
-14.30950510588106
 31
0.0
  0
LINE
  5
12A6A
330
124BD
100
AcDbEntity
  8
0
100
AcDbLine
 10
3.677725051918219
 20
-14.03538819458845
 30
0.0
 11
3.678471089225048
 21
-14.04536598930952
 31
0.0
  0
LINE
  5
12A6B
330
124BD
100
AcDbEntity
  8
0
100
AcDbLine
 10
3.679599370225751
 20
-14.07578405705302
 30
0.0
 11
3.679975213994428
 21
-14.09748425990331
 31
0.0
  0
LINE
  5
12A6C
330
124BD
100
AcDbEntity
  8
0
100
AcDbLine
 10
3.679096928648425
 20
-14.05862128849306
 30
0.0
 11
3.679599370225751
 21
-14.07578405705302
 31
0.0
  0
LINE
  5
12A6D
330
124BD
100
AcDbEntity
  8
0
100
AcDbLine
 10
3.678471089225048
 20
-14.04536598930952
 30
0.0
 11
3.679096928648425
 21
-14.05862128849306
 31
0.0
  0
LINE
  5
12A6E
330
124BD
100
AcDbEntity
  8
0
100
AcDbLine
 10
3.680004304045898
 20
-14.19001605753545
 30
0.0
 11
3.679421252260045
 21
-14.22781588984916
 31
0.0
  0
LINE
  5
12A6F
330
124BD
100
AcDbEntity
  8
0
100
AcDbLine
 10
3.680243388321601
 20
-14.15521147530101
 30
0.0
 11
3.680004304045898
 21
-14.19001605753545
 31
0.0
  0
LINE
  5
12A70
330
124BD
100
AcDbEntity
  8
0
100
AcDbLine
 10
3.680209895000121
 20
-14.12412619285419
 30
0.0
 11
3.680243388321601
 21
-14.15521147530101
 31
0.0
  0
LINE
  5
12A71
330
124BD
100
AcDbEntity
  8
0
100
AcDbLine
 10
3.679975213994428
 20
-14.09748425990331
 30
0.0
 11
3.680209895000121
 21
-14.12412619285419
 31
0.0
  0
LINE
  5
12A72
330
124BD
100
AcDbEntity
  8
0
100
AcDbLine
 10
3.676862016690545
 20
-14.0280579394159
 30
0.0
 11
3.677725051918219
 21
-14.03538819458845
 31
0.0
  0
LINE
  5
12A73
330
124BD
100
AcDbEntity
  8
0
100
AcDbLine
 10
3.675885183504616
 20
-14.02274525887794
 30
0.0
 11
3.676862016690545
 21
-14.0280579394159
 31
0.0
  0
LINE
  5
12A74
330
124BD
100
AcDbEntity
  8
0
100
AcDbLine
 10
3.674797752323044
 20
-14.01882018806063
 30
0.0
 11
3.675885183504616
 21
-14.02274525887794
 31
0.0
  0
LINE
  5
12A75
330
124BD
100
AcDbEntity
  8
0
100
AcDbLine
 10
3.67360292310842
 20
-14.01565276205001
 30
0.0
 11
3.674797752323044
 21
-14.01882018806063
 31
0.0
  0
LINE
  5
12A76
330
124BD
100
AcDbEntity
  8
0
100
AcDbLine
 10
3.672214569702454
 20
-14.01261389726686
 30
0.0
 11
3.67360292310842
 21
-14.01565276205001
 31
0.0
  0
LINE
  5
12A77
330
124BD
100
AcDbEntity
  8
0
100
AcDbLine
 10
3.67018926146328
 20
-14.00907803547076
 30
0.0
 11
3.672214569702454
 21
-14.01261389726686
 31
0.0
  0
LINE
  5
12A78
330
124BD
100
AcDbEntity
  8
0
100
AcDbLine
 10
3.666994241628135
 20
-14.00442049975597
 30
0.0
 11
3.67018926146328
 21
-14.00907803547076
 31
0.0
  0
LINE
  5
12A79
330
124BD
100
AcDbEntity
  8
0
100
AcDbLine
 10
3.654964040118896
 20
-13.98924169894744
 30
0.0
 11
3.662096753434262
 21
-13.99801661321677
 31
0.0
  0
LINE
  5
12A7A
330
124BD
100
AcDbEntity
  8
0
100
AcDbLine
 10
3.645063344919275
 20
-13.97747108004225
 30
0.0
 11
3.654964040118896
 21
-13.98924169894744
 31
0.0
  0
LINE
  5
12A7B
330
124BD
100
AcDbEntity
  8
0
100
AcDbLine
 10
3.631861911072643
 20
-13.96208007959549
 30
0.0
 11
3.645063344919275
 21
-13.97747108004225
 31
0.0
  0
LINE
  5
12A7C
330
124BD
100
AcDbEntity
  8
0
100
AcDbLine
 10
3.662096753434262
 20
-13.99801661321677
 30
0.0
 11
3.666994241628135
 21
-14.00442049975597
 31
0.0
  0
LINE
  5
12A7D
330
124BD
100
AcDbEntity
  8
0
100
AcDbLine
 10
3.511844487197372
 20
-13.816626368804
 30
0.0
 11
3.541362051109395
 21
-13.85505480348427
 31
0.0
  0
LINE
  5
12A7E
330
124BD
100
AcDbEntity
  8
0
100
AcDbLine
 10
3.481134885971655
 20
-13.77370600599768
 30
0.0
 11
3.511844487197372
 21
-13.816626368804
 31
0.0
  0
LINE
  5
12A7F
330
124BD
100
AcDbEntity
  8
0
100
AcDbLine
 10
3.450026801146972
 20
-13.72638816687207
 30
0.0
 11
3.481134885971655
 21
-13.77370600599768
 31
0.0
  0
LINE
  5
12A80
330
124BD
100
AcDbEntity
  8
0
100
AcDbLine
 10
3.783703826055925
 20
-13.43097962607957
 30
0.0
 11
3.804988691237802
 21
-13.48302648088542
 31
0.0
  0
LINE
  5
12A81
330
124BD
100
AcDbEntity
  8
0
100
AcDbLine
 10
4.081310073650334
 20
-14.26326255954182
 30
0.0
 11
4.08089082573014
 21
-14.37515532056555
 31
0.0
  0
LINE
  5
12A82
330
124BD
100
AcDbEntity
  8
0
100
AcDbLine
 10
4.079869191650381
 20
-14.78362720835363
 30
0.0
 11
4.079449507514576
 21
-14.92564124039825
 31
0.0
  0
LINE
  5
12A83
330
124BD
100
AcDbEntity
  8
0
100
AcDbLine
 10
4.079449507514576
 20
-14.92564124039825
 30
0.0
 11
4.078912371914841
 21
-15.06127315666469
 31
0.0
  0
LINE
  5
12A84
330
124BD
100
AcDbEntity
  8
0
100
AcDbLine
 10
4.078912371914841
 20
-15.06127315666469
 30
0.0
 11
4.078212338735937
 21
-15.18483590744064
 31
0.0
  0
LINE
  5
12A85
330
124BD
100
AcDbEntity
  8
0
100
AcDbLine
 10
4.080542726183093
 20
-14.50284360302322
 30
0.0
 11
4.08021794678973
 21
-14.640840002741
 31
0.0
  0
LINE
  5
12A86
330
124BD
100
AcDbEntity
  8
0
100
AcDbLine
 10
4.08021794678973
 20
-14.640840002741
 30
0.0
 11
4.079869191650381
 21
-14.78362720835363
 31
0.0
  0
LINE
  5
12A87
330
124BD
100
AcDbEntity
  8
0
100
AcDbLine
 10
4.08089082573014
 20
-14.37515532056555
 30
0.0
 11
4.080542726183093
 21
-14.50284360302322
 31
0.0
  0
LINE
  5
12A88
330
124BD
100
AcDbEntity
  8
0
100
AcDbLine
 10
4.005044741440778
 20
-13.84084971172348
 30
0.0
 11
4.021617044854977
 21
-13.86558285767547
 31
0.0
  0
LINE
  5
12A89
330
124BD
100
AcDbEntity
  8
0
100
AcDbLine
 10
4.081825691807887
 20
-14.17146396728555
 30
0.0
 11
4.081310073650334
 21
-14.26326255954182
 31
0.0
  0
LINE
  5
12A8A
330
124BD
100
AcDbEntity
  8
0
100
AcDbLine
 10
4.082853994979469
 20
-14.04268047459194
 30
0.0
 11
4.082370816400963
 21
-14.09872588063934
 31
0.0
  0
LINE
  5
12A8B
330
124BD
100
AcDbEntity
  8
0
100
AcDbLine
 10
4.082370816400963
 20
-14.09872588063934
 30
0.0
 11
4.081825691807887
 21
-14.17146396728555
 31
0.0
  0
LINE
  5
12A8C
330
124BD
100
AcDbEntity
  8
0
100
AcDbLine
 10
4.083182451561787
 20
-14.00121688521803
 30
0.0
 11
4.082853994979469
 21
-14.04268047459194
 31
0.0
  0
LINE
  5
12A8D
330
124BD
100
AcDbEntity
  8
0
100
AcDbLine
 10
4.051756140439199
 20
-13.90928666001618
 30
0.0
 11
4.064631262971316
 21
-13.92745615735623
 31
0.0
  0
LINE
  5
12A8E
330
124BD
100
AcDbEntity
  8
0
100
AcDbLine
 10
4.037247098672091
 20
-13.88845510282904
 30
0.0
 11
4.051756140439199
 21
-13.90928666001618
 31
0.0
  0
LINE
  5
12A8F
330
124BD
100
AcDbEntity
  8
0
100
AcDbLine
 10
4.021617044854977
 20
-13.86558285767547
 30
0.0
 11
4.037247098672091
 21
-13.88845510282904
 31
0.0
  0
LINE
  5
12A90
330
124BD
100
AcDbEntity
  8
0
100
AcDbLine
 10
4.083119876657141
 20
-13.95615586247199
 30
0.0
 11
4.08327453782989
 21
-13.97273837661182
 31
0.0
  0
LINE
  5
12A91
330
124BD
100
AcDbEntity
  8
0
100
AcDbLine
 10
4.083019018476399
 20
-13.95325001114184
 30
0.0
 11
4.083119876657141
 21
-13.95615586247199
 31
0.0
  0
LINE
  5
12A92
330
124BD
100
AcDbEntity
  8
0
100
AcDbLine
 10
4.075280434861516
 20
-13.94235858735589
 30
0.0
 11
4.083019018476399
 21
-13.95325001114184
 31
0.0
  0
LINE
  5
12A93
330
124BD
100
AcDbEntity
  8
0
100
AcDbLine
 10
4.064631262971316
 20
-13.92745615735623
 30
0.0
 11
4.075280434861516
 21
-13.94235858735589
 31
0.0
  0
LINE
  5
12A94
330
124BD
100
AcDbEntity
  8
0
100
AcDbLine
 10
4.08327453782989
 20
-13.97273837661182
 30
0.0
 11
4.083182451561787
 21
-14.00121688521803
 31
0.0
  0
LINE
  5
12A95
330
124BD
100
AcDbEntity
  8
0
100
AcDbLine
 10
3.870486663647072
 20
-13.61851707454955
 30
0.0
 11
3.891690867927666
 21
-13.65687880254346
 31
0.0
  0
LINE
  5
12A96
330
124BD
100
AcDbEntity
  8
0
100
AcDbLine
 10
3.912027449508205
 20
-13.69208145311887
 30
0.0
 11
3.931645969442312
 21
-13.72499827087096
 31
0.0
  0
LINE
  5
12A97
330
124BD
100
AcDbEntity
  8
0
100
AcDbLine
 10
3.891690867927666
 20
-13.65687880254346
 30
0.0
 11
3.912027449508205
 21
-13.69208145311887
 31
0.0
  0
LINE
  5
12A98
330
124BD
100
AcDbEntity
  8
0
100
AcDbLine
 10
3.931645969442312
 20
-13.72499827087096
 30
0.0
 11
3.950824037108635
 21
-13.75632699409803
 31
0.0
  0
LINE
  5
12A99
330
124BD
100
AcDbEntity
  8
0
100
AcDbLine
 10
3.826761099843311
 20
-13.53161590351019
 30
0.0
 11
3.848713378151661
 21
-13.5767732484489
 31
0.0
  0
LINE
  5
12A9A
330
124BD
100
AcDbEntity
  8
0
100
AcDbLine
 10
3.848713378151661
 20
-13.5767732484489
 30
0.0
 11
3.870486663647072
 21
-13.61851707454955
 31
0.0
  0
LINE
  5
12A9B
330
124BD
100
AcDbEntity
  8
0
100
AcDbLine
 10
3.987643394416522
 20
-13.81433862683877
 30
0.0
 11
4.005044741440778
 21
-13.84084971172348
 31
0.0
  0
LINE
  5
12A9C
330
124BD
100
AcDbEntity
  8
0
100
AcDbLine
 10
3.969530059979414
 20
-13.78613555940721
 30
0.0
 11
3.987643394416522
 21
-13.81433862683877
 31
0.0
  0
LINE
  5
12A9D
330
124BD
100
AcDbEntity
  8
0
100
AcDbLine
 10
3.950824037108635
 20
-13.75632699409803
 30
0.0
 11
3.969530059979414
 21
-13.78613555940721
 31
0.0
  0
LINE
  5
12A9E
330
124BD
100
AcDbEntity
  8
0
100
AcDbLine
 10
3.751073810791826
 20
-9.56232368008909
 30
0.0
 11
3.780001960477525
 21
-9.609328365365882
 31
0.0
  0
LINE
  5
12A9F
330
124BD
100
AcDbEntity
  8
0
100
AcDbLine
 10
4.522965377729452
 20
-9.608513883028827
 30
0.0
 11
4.509473664475917
 21
-9.597104604898216
 31
0.0
  0
LINE
  5
12AA0
330
124BD
100
AcDbEntity
  8
0
100
AcDbLine
 10
3.447238394827738
 20
-11.46964996753188
 30
0.0
 11
3.415837793374379
 21
-11.53519317726378
 31
0.0
  0
LINE
  5
12AA1
330
124BD
100
AcDbEntity
  8
0
100
AcDbLine
 10
4.219591899351657
 20
-11.4052527251937
 30
0.0
 11
4.140867963931688
 21
-11.49945980826649
 31
0.0
  0
LINE
  5
12AA2
330
124BD
100
AcDbEntity
  8
0
100
AcDbLine
 10
3.831760018501466
 20
-11.97975905597761
 30
0.0
 11
3.787431185191264
 21
-12.07200308935492
 31
0.0
  0
LINE
  5
12AA3
330
124BD
100
AcDbEntity
  8
0
100
AcDbLine
 10
3.188898321398095
 20
-12.38429927980937
 30
0.0
 11
3.184860844979692
 21
-12.45682945909497
 31
0.0
  0
LINE
  5
12AA4
330
124BD
100
AcDbEntity
  8
0
100
AcDbLine
 10
3.670598830656047
 20
-12.42335250019365
 30
0.0
 11
3.656353849326482
 21
-12.50812467847759
 31
0.0
  0
LINE
  5
12AA5
330
124BD
100
AcDbEntity
  8
0
100
AcDbLine
 10
3.202243132928391
 20
-12.9100668959471
 30
0.0
 11
3.212077882042272
 21
-12.98669532144466
 31
0.0
  0
LINE
  5
12AA6
330
124BD
100
AcDbEntity
  8
0
100
AcDbLine
 10
3.223894831476847
 20
-13.06307614492232
 30
0.0
 11
3.237693980757637
 21
-13.13895858414769
 31
0.0
  0
LINE
  5
12AA7
330
124BD
100
AcDbEntity
  8
0
100
AcDbLine
 10
3.212077882042272
 20
-12.98669532144466
 30
0.0
 11
3.223894831476847
 21
-13.06307614492232
 31
0.0
  0
LINE
  5
12AA8
330
124BD
100
AcDbEntity
  8
0
100
AcDbLine
 10
3.253475327512173
 20
-13.2139267821409
 30
0.0
 11
3.271238868893526
 21
-13.28752361323527
 31
0.0
  0
LINE
  5
12AA9
330
124BD
100
AcDbEntity
  8
0
100
AcDbLine
 10
3.271238868893526
 20
-13.28752361323527
 30
0.0
 11
3.290984602054752
 21
-13.35929195176411
 31
0.0
  0
LINE
  5
12AAA
330
124BD
100
AcDbEntity
  8
0
100
AcDbLine
 10
3.237693980757637
 20
-13.13895858414769
 30
0.0
 11
3.253475327512173
 21
-13.2139267821409
 31
0.0
  0
LINE
  5
12AAB
330
124BD
100
AcDbEntity
  8
0
100
AcDbLine
 10
3.182726139679814
 20
-12.60526744466901
 30
0.0
 11
3.184632087510916
 21
-12.68079114279061
 31
0.0
  0
LINE
  5
12AAC
330
124BD
100
AcDbEntity
  8
0
100
AcDbLine
 10
3.194390584135202
 20
-12.8334003819752
 30
0.0
 11
3.202243132928391
 21
-12.9100668959471
 31
0.0
  0
LINE
  5
12AAD
330
124BD
100
AcDbEntity
  8
0
100
AcDbLine
 10
3.184632087510916
 20
-12.68079114279061
 30
0.0
 11
3.188520235662711
 21
-12.75690529307453
 31
0.0
  0
LINE
  5
12AAE
330
124BD
100
AcDbEntity
  8
0
100
AcDbLine
 10
3.188520235662711
 20
-12.75690529307453
 30
0.0
 11
3.194390584135202
 21
-12.8334003819752
 31
0.0
  0
LINE
  5
12AAF
330
124BD
100
AcDbEntity
  8
0
100
AcDbLine
 10
3.184860844979692
 20
-12.45682945909497
 30
0.0
 11
3.182802392169406
 21
-12.53054371225528
 31
0.0
  0
LINE
  5
12AB0
330
124BD
100
AcDbEntity
  8
0
100
AcDbLine
 10
3.182802392169406
 20
-12.53054371225528
 30
0.0
 11
3.182726139679814
 21
-12.60526744466901
 31
0.0
  0
LINE
  5
12AB1
330
124BD
100
AcDbEntity
  8
0
100
AcDbLine
 10
3.656510345745946
 20
-12.90349147796666
 30
0.0
 11
3.666306286990755
 21
-12.97764540547238
 31
0.0
  0
LINE
  5
12AB2
330
124BD
100
AcDbEntity
  8
0
100
AcDbLine
 10
3.678329100678899
 20
-13.05005135801656
 30
0.0
 11
3.692288347896393
 21
-13.12041467561825
 31
0.0
  0
LINE
  5
12AB3
330
124BD
100
AcDbEntity
  8
0
100
AcDbLine
 10
3.72507384227322
 20
-13.25383302799651
 30
0.0
 11
3.743544531691394
 21
-13.31632425269108
 31
0.0
  0
LINE
  5
12AB4
330
124BD
100
AcDbEntity
  8
0
100
AcDbLine
 10
3.707936472038634
 20
-13.18843425950162
 30
0.0
 11
3.72507384227322
 21
-13.25383302799651
 31
0.0
  0
LINE
  5
12AB5
330
124BD
100
AcDbEntity
  8
0
100
AcDbLine
 10
3.692288347896393
 20
-13.12041467561825
 30
0.0
 11
3.707936472038634
 21
-13.18843425950162
 31
0.0
  0
LINE
  5
12AB6
330
124BD
100
AcDbEntity
  8
0
100
AcDbLine
 10
3.666306286990755
 20
-12.97764540547238
 30
0.0
 11
3.678329100678899
 21
-13.05005135801656
 31
0.0
  0
LINE
  5
12AB7
330
124BD
100
AcDbEntity
  8
0
100
AcDbLine
 10
3.743544531691394
 20
-13.31632425269108
 30
0.0
 11
3.763154005421867
 21
-13.37542483229788
 31
0.0
  0
LINE
  5
12AB8
330
124BD
100
AcDbEntity
  8
0
100
AcDbLine
 10
3.644231691779264
 20
-12.6721566775101
 30
0.0
 11
3.64500866053609
 21
-12.75084317520688
 31
0.0
  0
LINE
  5
12AB9
330
124BD
100
AcDbEntity
  8
0
100
AcDbLine
 10
3.649279323053393
 20
-12.82785214427617
 30
0.0
 11
3.656510345745946
 21
-12.90349147796666
 31
0.0
  0
LINE
  5
12ABA
330
124BD
100
AcDbEntity
  8
0
100
AcDbLine
 10
3.64500866053609
 20
-12.75084317520688
 30
0.0
 11
3.649279323053393
 21
-12.82785214427617
 31
0.0
  0
LINE
  5
12ABB
330
124BD
100
AcDbEntity
  8
0
100
AcDbLine
 10
3.647752325183224
 20
-12.59120536438058
 30
0.0
 11
3.644231691779264
 21
-12.6721566775101
 31
0.0
  0
LINE
  5
12ABC
330
124BD
100
AcDbEntity
  8
0
100
AcDbLine
 10
3.656353849326482
 20
-12.50812467847759
 30
0.0
 11
3.647752325183224
 21
-12.59120536438058
 31
0.0
  0
LINE
  5
12ABD
330
124BD
100
AcDbEntity
  8
0
100
AcDbLine
 10
3.271061202168166
 20
-11.91071982318143
 30
0.0
 11
3.253682011217627
 21
-11.97471705287423
 31
0.0
  0
LINE
  5
12ABE
330
124BD
100
AcDbEntity
  8
0
100
AcDbLine
 10
3.238151598659605
 20
-12.03993327536598
 30
0.0
 11
3.22448902476955
 21
-12.10636849065672
 31
0.0
  0
LINE
  5
12ABF
330
124BD
100
AcDbEntity
  8
0
100
AcDbLine
 10
3.20284363409516
 20
-12.2428958996351
 30
0.0
 11
3.194898937861733
 21
-12.31298809332275
 31
0.0
  0
LINE
  5
12AC0
330
124BD
100
AcDbEntity
  8
0
100
AcDbLine
 10
3.194898937861733
 20
-12.31298809332275
 30
0.0
 11
3.188898321398095
 21
-12.38429927980937
 31
0.0
  0
LINE
  5
12AC1
330
124BD
100
AcDbEntity
  8
0
100
AcDbLine
 10
3.22448902476955
 20
-12.10636849065672
 30
0.0
 11
3.212713349822916
 21
-12.17402269874642
 31
0.0
  0
LINE
  5
12AC2
330
124BD
100
AcDbEntity
  8
0
100
AcDbLine
 10
3.212713349822916
 20
-12.17402269874642
 30
0.0
 11
3.20284363409516
 21
-12.2428958996351
 31
0.0
  0
LINE
  5
12AC3
330
124BD
100
AcDbEntity
  8
0
100
AcDbLine
 10
3.253682011217627
 20
-11.97471705287423
 30
0.0
 11
3.238151598659605
 21
-12.03993327536598
 31
0.0
  0
LINE
  5
12AC4
330
124BD
100
AcDbEntity
  8
0
100
AcDbLine
 10
3.290282817137086
 20
-11.84786222463697
 30
0.0
 11
3.271061202168166
 21
-11.91071982318143
 31
0.0
  0
LINE
  5
12AC5
330
124BD
100
AcDbEntity
  8
0
100
AcDbLine
 10
3.359497722071001
 20
-11.66184168675871
 30
0.0
 11
3.334443901956021
 21
-11.72389932632949
 31
0.0
  0
LINE
  5
12AC6
330
124BD
100
AcDbEntity
  8
0
100
AcDbLine
 10
3.311391325355543
 20
-11.78574744898761
 30
0.0
 11
3.290282817137086
 21
-11.84786222463697
 31
0.0
  0
LINE
  5
12AC7
330
124BD
100
AcDbEntity
  8
0
100
AcDbLine
 10
3.334443901956021
 20
-11.72389932632949
 30
0.0
 11
3.311391325355543
 21
-11.78574744898761
 31
0.0
  0
LINE
  5
12AC8
330
124BD
100
AcDbEntity
  8
0
100
AcDbLine
 10
3.415837793374379
 20
-11.53519317726378
 30
0.0
 11
3.386609960832959
 21
-11.59909836037144
 31
0.0
  0
LINE
  5
12AC9
330
124BD
100
AcDbEntity
  8
0
100
AcDbLine
 10
3.386609960832959
 20
-11.59909836037144
 30
0.0
 11
3.359497722071001
 21
-11.66184168675871
 31
0.0
  0
LINE
  5
12ACA
330
124BD
100
AcDbEntity
  8
0
100
AcDbLine
 10
3.716995852204558
 20
-12.2501996027054
 30
0.0
 11
3.690785161500839
 21
-12.33730767817716
 31
0.0
  0
LINE
  5
12ACB
330
124BD
100
AcDbEntity
  8
0
100
AcDbLine
 10
3.690785161500839
 20
-12.33730767817716
 30
0.0
 11
3.670598830656047
 21
-12.42335250019365
 31
0.0
  0
LINE
  5
12ACC
330
124BD
100
AcDbEntity
  8
0
100
AcDbLine
 10
3.74920997178413
 20
-12.1619199767817
 30
0.0
 11
3.716995852204558
 21
-12.2501996027054
 31
0.0
  0
LINE
  5
12ACD
330
124BD
100
AcDbEntity
  8
0
100
AcDbLine
 10
3.787431185191264
 20
-12.07200308935492
 30
0.0
 11
3.74920997178413
 21
-12.1619199767817
 31
0.0
  0
LINE
  5
12ACE
330
124BD
100
AcDbEntity
  8
0
100
AcDbLine
 10
3.882079912011056
 20
-11.88535407548874
 30
0.0
 11
3.831760018501466
 21
-11.97975905597761
 31
0.0
  0
LINE
  5
12ACF
330
124BD
100
AcDbEntity
  8
0
100
AcDbLine
 10
4.067733242097638
 20
-11.59550667882795
 30
0.0
 11
4.000178464725797
 21
-11.69243551052247
 31
0.0
  0
LINE
  5
12AD0
330
124BD
100
AcDbEntity
  8
0
100
AcDbLine
 10
3.938260638743518
 20
-11.78933360237695
 30
0.0
 11
3.882079912011056
 21
-11.88535407548874
 31
0.0
  0
LINE
  5
12AD1
330
124BD
100
AcDbEntity
  8
0
100
AcDbLine
 10
4.000178464725797
 20
-11.69243551052247
 30
0.0
 11
3.938260638743518
 21
-11.78933360237695
 31
0.0
  0
LINE
  5
12AD2
330
124BD
100
AcDbEntity
  8
0
100
AcDbLine
 10
4.140867963931688
 20
-11.49945980826649
 30
0.0
 11
4.067733242097638
 21
-11.59550667882795
 31
0.0
  0
LINE
  5
12AD3
330
124BD
100
AcDbEntity
  8
0
100
AcDbLine
 10
3.81144606035488
 20
-9.651564495094962
 30
0.0
 11
3.844902922473318
 21
-9.689100486214652
 31
0.0
  0
LINE
  5
12AD4
330
124BD
100
AcDbEntity
  8
0
100
AcDbLine
 10
3.867955122802923
 20
-10.81199896910185
 30
0.0
 11
3.804226376288436
 21
-10.8858148111684
 31
0.0
  0
LINE
  5
12AD5
330
124BD
100
AcDbEntity
  8
0
100
AcDbLine
 10
3.745719971585112
 20
-10.96064014258962
 30
0.0
 11
3.692016591173773
 21
-11.03596069825313
 31
0.0
  0
LINE
  5
12AD6
330
124BD
100
AcDbEntity
  8
0
100
AcDbLine
 10
3.642696917535237
 20
-11.11126221304657
 30
0.0
 11
3.597341633150325
 21
-11.18603042185755
 31
0.0
  0
LINE
  5
12AD7
330
124BD
100
AcDbEntity
  8
0
100
AcDbLine
 10
3.516846962064644
 20
-11.33190986108258
 30
0.0
 11
3.480868940325514
 21
-11.40199256127186
 31
0.0
  0
LINE
  5
12AD8
330
124BD
100
AcDbEntity
  8
0
100
AcDbLine
 10
3.480868940325514
 20
-11.40199256127186
 30
0.0
 11
3.447238394827738
 21
-11.46964996753188
 31
0.0
  0
LINE
  5
12AD9
330
124BD
100
AcDbEntity
  8
0
100
AcDbLine
 10
3.555531420499853
 20
-11.25975105957367
 30
0.0
 11
3.516846962064644
 21
-11.33190986108258
 31
0.0
  0
LINE
  5
12ADA
330
124BD
100
AcDbEntity
  8
0
100
AcDbLine
 10
3.597341633150325
 20
-11.18603042185755
 30
0.0
 11
3.555531420499853
 21
-11.25975105957367
 31
0.0
  0
LINE
  5
12ADB
330
124BD
100
AcDbEntity
  8
0
100
AcDbLine
 10
3.692016591173773
 20
-11.03596069825313
 30
0.0
 11
3.642696917535237
 21
-11.11126221304657
 31
0.0
  0
LINE
  5
12ADC
330
124BD
100
AcDbEntity
  8
0
100
AcDbLine
 10
3.804226376288436
 20
-10.8858148111684
 30
0.0
 11
3.745719971585112
 21
-10.96064014258962
 31
0.0
  0
LINE
  5
12ADD
330
124BD
100
AcDbEntity
  8
0
100
AcDbLine
 10
3.780001960477525
 20
-9.609328365365882
 30
0.0
 11
3.81144606035488
 21
-9.651564495094962
 31
0.0
  0
LINE
  5
12ADE
330
124BD
100
AcDbEntity
  8
0
100
AcDbLine
 10
4.16939569937813
 20
-10.53349665529839
 30
0.0
 11
4.088726825820712
 21
-10.60022420490478
 31
0.0
  0
LINE
  5
12ADF
330
124BD
100
AcDbEntity
  8
0
100
AcDbLine
 10
4.088726825820712
 20
-10.60022420490478
 30
0.0
 11
4.01099638909487
 21
-10.66900042081585
 31
0.0
  0
LINE
  5
12AE0
330
124BD
100
AcDbEntity
  8
0
100
AcDbLine
 10
3.937105463366851
 20
-10.73965033241905
 30
0.0
 11
3.867955122802923
 21
-10.81199896910185
 31
0.0
  0
LINE
  5
12AE1
330
124BD
100
AcDbEntity
  8
0
100
AcDbLine
 10
4.01099638909487
 20
-10.66900042081585
 30
0.0
 11
3.937105463366851
 21
-10.73965033241905
 31
0.0
  0
LINE
  5
12AE2
330
124BD
100
AcDbEntity
  8
0
100
AcDbLine
 10
4.483107310439764
 20
-11.14844328111726
 30
0.0
 11
4.39220755033731
 21
-11.22818373092693
 31
0.0
  0
LINE
  5
12AE3
330
124BD
100
AcDbEntity
  8
0
100
AcDbLine
 10
4.303772739646703
 20
-11.31413964371299
 30
0.0
 11
4.219591899351657
 21
-11.4052527251937
 31
0.0
  0
LINE
  5
12AE4
330
124BD
100
AcDbEntity
  8
0
100
AcDbLine
 10
4.39220755033731
 20
-11.22818373092693
 30
0.0
 11
4.303772739646703
 21
-11.31413964371299
 31
0.0
  0
LINE
  5
12AE5
330
124BD
100
AcDbEntity
  8
0
100
AcDbLine
 10
4.575446612354188
 20
-11.07477587685398
 30
0.0
 11
4.483107310439764
 21
-11.14844328111726
 31
0.0
  0
LINE
  5
12AE6
330
124BD
100
AcDbEntity
  8
0
100
AcDbLine
 10
4.213113725081074
 20
-9.855102892715898
 30
0.0
 11
4.236664332871502
 21
-9.852082372096667
 31
0.0
  0
LINE
  5
12AE7
330
124BD
100
AcDbEntity
  8
0
100
AcDbLine
 10
4.25210193560086
 20
-10.46899274260921
 30
0.0
 11
4.16939569937813
 21
-10.53349665529839
 31
0.0
  0
LINE
  5
12AE8
330
124BD
100
AcDbEntity
  8
0
100
AcDbLine
 10
3.986535005709498
 20
-9.796758528655129
 30
0.0
 11
4.020813438297045
 21
-9.814180424769585
 31
0.0
  0
LINE
  5
12AE9
330
124BD
100
AcDbEntity
  8
0
100
AcDbLine
 10
3.879756397450421
 20
-9.72216211192773
 30
0.0
 11
3.915390335903765
 21
-9.750975145436978
 31
0.0
  0
LINE
  5
12AEA
330
124BD
100
AcDbEntity
  8
0
100
AcDbLine
 10
3.915390335903765
 20
-9.750975145436978
 30
0.0
 11
3.951188588450927
 21
-9.775765359945186
 31
0.0
  0
LINE
  5
12AEB
330
124BD
100
AcDbEntity
  8
0
100
AcDbLine
 10
3.844902922473318
 20
-9.689100486214652
 30
0.0
 11
3.879756397450421
 21
-9.72216211192773
 31
0.0
  0
LINE
  5
12AEC
330
124BD
100
AcDbEntity
  8
0
100
AcDbLine
 10
3.951188588450927
 20
-9.775765359945186
 30
0.0
 11
3.986535005709498
 21
-9.796758528655129
 31
0.0
  0
LINE
  5
12AED
330
124BD
100
AcDbEntity
  8
0
100
AcDbLine
 10
4.020813438297045
 20
-9.814180424769585
 30
0.0
 11
4.053407736831156
 21
-9.828256821491343
 31
0.0
  0
LINE
  5
12AEE
330
124BD
100
AcDbEntity
  8
0
100
AcDbLine
 10
4.083859212010809
 20
-9.839213491462007
 30
0.0
 11
4.112339014860598
 21
-9.847276205078447
 31
0.0
  0
LINE
  5
12AEF
330
124BD
100
AcDbEntity
  8
0
100
AcDbLine
 10
4.053407736831156
 20
-9.828256821491343
 30
0.0
 11
4.083859212010809
 21
-9.839213491462007
 31
0.0
  0
LINE
  5
12AF0
330
124BD
100
AcDbEntity
  8
0
100
AcDbLine
 10
4.112339014860598
 20
-9.847276205078447
 30
0.0
 11
4.139175756486526
 21
-9.852670732176363
 31
0.0
  0
LINE
  5
12AF1
330
124BD
100
AcDbEntity
  8
0
100
AcDbLine
 10
4.16469804799458
 20
-9.85562284259144
 30
0.0
 11
4.189234500490764
 21
-9.856358306159386
 31
0.0
  0
LINE
  5
12AF2
330
124BD
100
AcDbEntity
  8
0
100
AcDbLine
 10
4.189234500490764
 20
-9.856358306159386
 30
0.0
 11
4.213113725081074
 21
-9.855102892715898
 31
0.0
  0
LINE
  5
12AF3
330
124BD
100
AcDbEntity
  8
0
100
AcDbLine
 10
4.139175756486526
 20
-9.852670732176363
 30
0.0
 11
4.16469804799458
 21
-9.85562284259144
 31
0.0
  0
LINE
  5
12AF4
330
124BD
100
AcDbEntity
  8
0
100
AcDbLine
 10
4.420022199377228
 20
-10.34735571043264
 30
0.0
 11
4.335944460322645
 21
-10.40688743744978
 31
0.0
  0
LINE
  5
12AF5
330
124BD
100
AcDbEntity
  8
0
100
AcDbLine
 10
4.335944460322645
 20
-10.40688743744978
 30
0.0
 11
4.25210193560086
 21
-10.46899274260921
 31
0.0
  0
LINE
  5
12AF6
330
124BD
100
AcDbEntity
  8
0
100
AcDbLine
 10
4.503434078598351
 20
-10.29057253217033
 30
0.0
 11
4.420022199377228
 21
-10.34735571043264
 31
0.0
  0
LINE
  5
12AF7
330
124BD
100
AcDbEntity
  8
0
100
AcDbLine
 10
4.585413938968919
 20
-10.23663525240808
 30
0.0
 11
4.503434078598351
 21
-10.29057253217033
 31
0.0
  0
LINE
  5
12AF8
330
124BD
100
AcDbEntity
  8
0
100
AcDbLine
 10
4.401072448846521
 20
-9.796241501410019
 30
0.0
 11
4.422742077909047
 21
-9.784735526187628
 31
0.0
  0
LINE
  5
12AF9
330
124BD
100
AcDbEntity
  8
0
100
AcDbLine
 10
4.284006882286593
 20
-9.841629464175476
 30
0.0
 11
4.307932484982552
 21
-9.834530869555194
 31
0.0
  0
LINE
  5
12AFA
330
124BD
100
AcDbEntity
  8
0
100
AcDbLine
 10
4.260214934968047
 20
-9.847522514137388
 30
0.0
 11
4.284006882286593
 21
-9.841629464175476
 31
0.0
  0
LINE
  5
12AFB
330
124BD
100
AcDbEntity
  8
0
100
AcDbLine
 10
4.236664332871502
 20
-9.852082372096667
 30
0.0
 11
4.260214934968047
 21
-9.847522514137388
 31
0.0
  0
LINE
  5
12AFC
330
124BD
100
AcDbEntity
  8
0
100
AcDbLine
 10
4.307932484982552
 20
-9.834530869555194
 30
0.0
 11
4.331796793021222
 21
-9.826334753122523
 31
0.0
  0
LINE
  5
12AFD
330
124BD
100
AcDbEntity
  8
0
100
AcDbLine
 10
4.37856172498791
 20
-9.807082046203955
 30
0.0
 11
4.401072448846521
 21
-9.796241501410019
 31
0.0
  0
LINE
  5
12AFE
330
124BD
100
AcDbEntity
  8
0
100
AcDbLine
 10
4.355404856367909
 20
-9.81714913772345
 30
0.0
 11
4.37856172498791
 21
-9.807082046203955
 31
0.0
  0
LINE
  5
12AFF
330
124BD
100
AcDbEntity
  8
0
100
AcDbLine
 10
4.331796793021222
 20
-9.826334753122523
 30
0.0
 11
4.355404856367909
 21
-9.81714913772345
 31
0.0
  0
LINE
  5
12B00
330
124BD
100
AcDbEntity
  8
0
100
AcDbLine
 10
4.422742077909047
 20
-9.784735526187628
 30
0.0
 11
4.443375662140786
 21
-9.772672143382763
 31
0.0
  0
LINE
  5
12B01
330
124BD
100
AcDbEntity
  8
0
100
AcDbLine
 10
4.497603519459135
 20
-9.734850331294271
 30
0.0
 11
4.512818843884794
 21
-9.722504379003098
 31
0.0
  0
LINE
  5
12B02
330
124BD
100
AcDbEntity
  8
0
100
AcDbLine
 10
4.443375662140786
 20
-9.772672143382763
 30
0.0
 11
4.462796506097955
 21
-9.760182803743671
 31
0.0
  0
LINE
  5
12B03
330
124BD
100
AcDbEntity
  8
0
100
AcDbLine
 10
4.462796506097955
 20
-9.760182803743671
 30
0.0
 11
4.480900932700464
 21
-9.747492669627646
 31
0.0
  0
LINE
  5
12B04
330
124BD
100
AcDbEntity
  8
0
100
AcDbLine
 10
4.480900932700464
 20
-9.747492669627646
 30
0.0
 11
4.497603519459135
 21
-9.734850331294271
 31
0.0
  0
LINE
  5
12B05
330
124BD
100
AcDbEntity
  8
0
100
AcDbLine
 10
4.526461483488262
 20
-9.71070340301371
 30
0.0
 11
4.538446015780372
 21
-9.69969599358566
 31
0.0
  0
LINE
  5
12B06
330
124BD
100
AcDbEntity
  8
0
100
AcDbLine
 10
4.535207551138514
 20
-9.618835498174206
 30
0.0
 11
4.522965377729452
 21
-9.608513883028827
 31
0.0
  0
LINE
  5
12B07
330
124BD
100
AcDbEntity
  8
0
100
AcDbLine
 10
4.512818843884794
 20
-9.722504379003098
 30
0.0
 11
4.526461483488262
 21
-9.71070340301371
 31
0.0
  0
LINE
  5
12B08
330
124BD
100
AcDbEntity
  8
0
100
AcDbLine
 10
4.55498039715014
 20
-9.635857481582348
 30
0.0
 11
4.545959464384832
 21
-9.627979885852631
 31
0.0
  0
LINE
  5
12B09
330
124BD
100
AcDbEntity
  8
0
100
AcDbLine
 10
4.562070943461307
 20
-9.642453975248809
 30
0.0
 11
4.55498039715014
 21
-9.635857481582348
 31
0.0
  0
LINE
  5
12B0A
330
124BD
100
AcDbEntity
  8
0
100
AcDbLine
 10
4.567196954725746
 20
-9.648056074206142
 30
0.0
 11
4.562070943461307
 21
-9.642453975248809
 31
0.0
  0
LINE
  5
12B0B
330
124BD
100
AcDbEntity
  8
0
100
AcDbLine
 10
4.570365596696007
 20
-9.653025740175657
 30
0.0
 11
4.567196954725746
 21
-9.648056074206142
 31
0.0
  0
LINE
  5
12B0C
330
124BD
100
AcDbEntity
  8
0
100
AcDbLine
 10
4.571584035124631
 20
-9.657724934878668
 30
0.0
 11
4.570365596696007
 21
-9.653025740175657
 31
0.0
  0
LINE
  5
12B0D
330
124BD
100
AcDbEntity
  8
0
100
AcDbLine
 10
4.570859435764177
 20
-9.662515620036487
 30
0.0
 11
4.571584035124631
 21
-9.657724934878668
 31
0.0
  0
LINE
  5
12B0E
330
124BD
100
AcDbEntity
  8
0
100
AcDbLine
 10
4.568198964367191
 20
-9.667759757370415
 30
0.0
 11
4.570859435764177
 21
-9.662515620036487
 31
0.0
  0
LINE
  5
12B0F
330
124BD
100
AcDbEntity
  8
0
100
AcDbLine
 10
4.563609786686212
 20
-9.673819308601771
 30
0.0
 11
4.568198964367191
 21
-9.667759757370415
 31
0.0
  0
LINE
  5
12B10
330
124BD
100
AcDbEntity
  8
0
100
AcDbLine
 10
4.557099068473803
 20
-9.681056235451862
 30
0.0
 11
4.563609786686212
 21
-9.673819308601771
 31
0.0
  0
LINE
  5
12B11
330
124BD
100
AcDbEntity
  8
0
100
AcDbLine
 10
4.548687018271943
 20
-9.689730740978518
 30
0.0
 11
4.557099068473803
 21
-9.681056235451862
 31
0.0
  0
LINE
  5
12B12
330
124BD
100
AcDbEntity
  8
0
100
AcDbLine
 10
4.545959464384832
 20
-9.627979885852631
 30
0.0
 11
4.535207551138514
 21
-9.618835498174206
 31
0.0
  0
LINE
  5
12B13
330
124BD
100
AcDbEntity
  8
0
100
AcDbLine
 10
4.538446015780372
 20
-9.69969599358566
 30
0.0
 11
4.548687018271943
 21
-9.689730740978518
 31
0.0
  0
LINE
  5
12B14
330
124BD
100
AcDbEntity
  8
0
100
AcDbLine
 10
3.854436670597298
 20
-8.071611360152363
 30
0.0
 11
3.815246200519716
 21
-8.121078991795165
 31
0.0
  0
LINE
  5
12B15
330
124BD
100
AcDbEntity
  8
0
100
AcDbLine
 10
3.607966278133083
 20
-8.624317219804389
 30
0.0
 11
3.599483924126563
 21
-8.682822437970596
 31
0.0
  0
LINE
  5
12B16
330
124BD
100
AcDbEntity
  8
0
100
AcDbLine
 10
3.606912243951491
 20
-9.095016846125336
 30
0.0
 11
3.617010274923055
 21
-9.155707960666603
 31
0.0
  0
LINE
  5
12B17
330
124BD
100
AcDbEntity
  8
0
100
AcDbLine
 10
3.617010274923055
 20
-9.155707960666603
 30
0.0
 11
3.629261381086552
 21
-9.217079825876634
 31
0.0
  0
LINE
  5
12B18
330
124BD
100
AcDbEntity
  8
0
100
AcDbLine
 10
3.724712953520976
 20
-9.511111447384124
 30
0.0
 11
3.751073810791826
 21
-9.56232368008909
 31
0.0
  0
LINE
  5
12B19
330
124BD
100
AcDbEntity
  8
0
100
AcDbLine
 10
3.660417944110974
 20
-9.339413108540163
 30
0.0
 11
3.679446639389203
 21
-9.398937797225659
 31
0.0
  0
LINE
  5
12B1A
330
124BD
100
AcDbEntity
  8
0
100
AcDbLine
 10
3.70085776945632
 20
-9.456410031634977
 30
0.0
 11
3.724712953520976
 21
-9.511111447384124
 31
0.0
  0
LINE
  5
12B1B
330
124BD
100
AcDbEntity
  8
0
100
AcDbLine
 10
3.679446639389203
 20
-9.398937797225659
 30
0.0
 11
3.70085776945632
 21
-9.456410031634977
 31
0.0
  0
LINE
  5
12B1C
330
124BD
100
AcDbEntity
  8
0
100
AcDbLine
 10
3.643710064412976
 20
-9.278554329962492
 30
0.0
 11
3.660417944110974
 21
-9.339413108540163
 31
0.0
  0
LINE
  5
12B1D
330
124BD
100
AcDbEntity
  8
0
100
AcDbLine
 10
3.629261381086552
 20
-9.217079825876634
 30
0.0
 11
3.643710064412976
 21
-9.278554329962492
 31
0.0
  0
LINE
  5
12B1E
330
124BD
100
AcDbEntity
  8
0
100
AcDbLine
 10
3.59347989133275
 20
-8.741214762240055
 30
0.0
 11
3.589899406014577
 21
-8.799566031632608
 31
0.0
  0
LINE
  5
12B1F
330
124BD
100
AcDbEntity
  8
0
100
AcDbLine
 10
3.589844740935806
 20
-8.916638010436532
 30
0.0
 11
3.593288392740527
 21
-8.975605022172683
 31
0.0
  0
LINE
  5
12B20
330
124BD
100
AcDbEntity
  8
0
100
AcDbLine
 10
3.593288392740527
 20
-8.975605022172683
 30
0.0
 11
3.598991255151537
 21
-9.035023583681486
 31
0.0
  0
LINE
  5
12B21
330
124BD
100
AcDbEntity
  8
0
100
AcDbLine
 10
3.598991255151537
 20
-9.035023583681486
 30
0.0
 11
3.606912243951491
 21
-9.095016846125336
 31
0.0
  0
LINE
  5
12B22
330
124BD
100
AcDbEntity
  8
0
100
AcDbLine
 10
3.589899406014577
 20
-8.799566031632608
 30
0.0
 11
3.588701383954708
 21
-8.857999397310639
 31
0.0
  0
LINE
  5
12B23
330
124BD
100
AcDbEntity
  8
0
100
AcDbLine
 10
3.588701383954708
 20
-8.857999397310639
 30
0.0
 11
3.589844740935806
 21
-8.916638010436532
 31
0.0
  0
LINE
  5
12B24
330
124BD
100
AcDbEntity
  8
0
100
AcDbLine
 10
3.599483924126563
 20
-8.682822437970596
 30
0.0
 11
3.59347989133275
 21
-8.741214762240055
 31
0.0
  0
LINE
  5
12B25
330
124BD
100
AcDbEntity
  8
0
100
AcDbLine
 10
3.779300760131699
 20
-8.17255802620432
 30
0.0
 11
3.74670303577759
 21
-8.225699545748831
 31
0.0
  0
LINE
  5
12B26
330
124BD
100
AcDbEntity
  8
0
100
AcDbLine
 10
3.632817766567706
 20
-8.507553052125896
 30
0.0
 11
3.619036485168244
 21
-8.565832517291834
 31
0.0
  0
LINE
  5
12B27
330
124BD
100
AcDbEntity
  8
0
100
AcDbLine
 10
3.619036485168244
 20
-8.565832517291834
 30
0.0
 11
3.607966278133083
 21
-8.624317219804389
 31
0.0
  0
LINE
  5
12B28
330
124BD
100
AcDbEntity
  8
0
100
AcDbLine
 10
3.691660270308485
 20
-8.335793297637295
 30
0.0
 11
3.669006437802167
 21
-8.392348720605667
 31
0.0
  0
LINE
  5
12B29
330
124BD
100
AcDbEntity
  8
0
100
AcDbLine
 10
3.649433343667125
 20
-8.449663545999516
 30
0.0
 11
3.632817766567706
 21
-8.507553052125896
 31
0.0
  0
LINE
  5
12B2A
330
124BD
100
AcDbEntity
  8
0
100
AcDbLine
 10
3.669006437802167
 20
-8.392348720605667
 30
0.0
 11
3.649433343667125
 21
-8.449663545999516
 31
0.0
  0
LINE
  5
12B2B
330
124BD
100
AcDbEntity
  8
0
100
AcDbLine
 10
3.74670303577759
 20
-8.225699545748831
 30
0.0
 11
3.717518062521738
 21
-8.280181998787366
 31
0.0
  0
LINE
  5
12B2C
330
124BD
100
AcDbEntity
  8
0
100
AcDbLine
 10
3.717518062521738
 20
-8.280181998787366
 30
0.0
 11
3.691660270308485
 21
-8.335793297637295
 31
0.0
  0
LINE
  5
12B2D
330
124BD
100
AcDbEntity
  8
0
100
AcDbLine
 10
3.815246200519716
 20
-8.121078991795165
 30
0.0
 11
3.779300760131699
 21
-8.17255802620432
 31
0.0
  0
LINE
  5
12B2E
330
124BD
100
AcDbEntity
  8
0
100
AcDbLine
 10
4.540550372206007
 20
-8.663615626114701
 30
0.0
 11
4.572549019338767
 21
-8.634725583986575
 31
0.0
  0
LINE
  5
12B2F
330
124BD
100
AcDbEntity
  8
0
100
AcDbLine
 10
4.321812232135171
 20
-9.131621883763209
 30
0.0
 11
4.32568456410172
 21
-9.097156087598666
 31
0.0
  0
LINE
  5
12B30
330
124BD
100
AcDbEntity
  8
0
100
AcDbLine
 10
4.415770268051147
 20
-9.510580866496418
 30
0.0
 11
4.400288289565262
 21
-9.493489202931598
 31
0.0
  0
LINE
  5
12B31
330
124BD
100
AcDbEntity
  8
0
100
AcDbLine
 10
4.318960508880882
 20
-9.165240243361026
 30
0.0
 11
4.321812232135171
 21
-9.131621883763209
 31
0.0
  0
LINE
  5
12B32
330
124BD
100
AcDbEntity
  8
0
100
AcDbLine
 10
4.324543680638555
 20
-9.343154800009397
 30
0.0
 11
4.320273684517786
 21
-9.31654586730507
 31
0.0
  0
LINE
  5
12B33
330
124BD
100
AcDbEntity
  8
0
100
AcDbLine
 10
4.338171641884493
 20
-9.392420519863986
 30
0.0
 11
4.330464641093662
 21
-9.368458848923602
 31
0.0
  0
LINE
  5
12B34
330
124BD
100
AcDbEntity
  8
0
100
AcDbLine
 10
4.330464641093662
 20
-9.368458848923602
 30
0.0
 11
4.324543680638555
 21
-9.343154800009397
 31
0.0
  0
LINE
  5
12B35
330
124BD
100
AcDbEntity
  8
0
100
AcDbLine
 10
4.320273684517786
 20
-9.31654586730507
 30
0.0
 11
4.31751957672999
 21
-9.288669544994323
 31
0.0
  0
LINE
  5
12B36
330
124BD
100
AcDbEntity
  8
0
100
AcDbLine
 10
4.317001823350601
 20
-9.197811182260494
 30
0.0
 11
4.318960508880882
 21
-9.165240243361026
 31
0.0
  0
LINE
  5
12B37
330
124BD
100
AcDbEntity
  8
0
100
AcDbLine
 10
4.316018722147772
 20
-9.229264708288333
 30
0.0
 11
4.317001823350601
 21
-9.197811182260494
 31
0.0
  0
LINE
  5
12B38
330
124BD
100
AcDbEntity
  8
0
100
AcDbLine
 10
4.316146281273777
 20
-9.259563327260835
 30
0.0
 11
4.316018722147772
 21
-9.229264708288333
 31
0.0
  0
LINE
  5
12B39
330
124BD
100
AcDbEntity
  8
0
100
AcDbLine
 10
4.31751957672999
 20
-9.288669544994323
 30
0.0
 11
4.316146281273777
 21
-9.259563327260835
 31
0.0
  0
LINE
  5
12B3A
330
124BD
100
AcDbEntity
  8
0
100
AcDbLine
 10
4.358976124711956
 20
-9.436340081930236
 30
0.0
 11
4.347736266041566
 21
-9.415023985002058
 31
0.0
  0
LINE
  5
12B3B
330
124BD
100
AcDbEntity
  8
0
100
AcDbLine
 10
4.371645336071887
 20
-9.456461314596129
 30
0.0
 11
4.358976124711956
 21
-9.436340081930236
 31
0.0
  0
LINE
  5
12B3C
330
124BD
100
AcDbEntity
  8
0
100
AcDbLine
 10
4.385498018297584
 20
-9.475480186947379
 30
0.0
 11
4.371645336071887
 21
-9.456461314596129
 31
0.0
  0
LINE
  5
12B3D
330
124BD
100
AcDbEntity
  8
0
100
AcDbLine
 10
4.400288289565262
 20
-9.493489202931598
 30
0.0
 11
4.385498018297584
 21
-9.475480186947379
 31
0.0
  0
LINE
  5
12B3E
330
124BD
100
AcDbEntity
  8
0
100
AcDbLine
 10
4.347736266041566
 20
-9.415023985002058
 30
0.0
 11
4.338171641884493
 21
-9.392420519863986
 31
0.0
  0
LINE
  5
12B3F
330
124BD
100
AcDbEntity
  8
0
100
AcDbLine
 10
4.447825819382416
 20
-9.542382152158324
 30
0.0
 11
4.431698071931458
 21
-9.526847681589444
 31
0.0
  0
LINE
  5
12B40
330
124BD
100
AcDbEntity
  8
0
100
AcDbLine
 10
4.46390848883116
 20
-9.557246437412445
 30
0.0
 11
4.447825819382416
 21
-9.542382152158324
 31
0.0
  0
LINE
  5
12B41
330
124BD
100
AcDbEntity
  8
0
100
AcDbLine
 10
4.479704499708502
 20
-9.571381317608285
 30
0.0
 11
4.46390848883116
 21
-9.557246437412445
 31
0.0
  0
LINE
  5
12B42
330
124BD
100
AcDbEntity
  8
0
100
AcDbLine
 10
4.494973131696177
 20
-9.584697228264129
 30
0.0
 11
4.479704499708502
 21
-9.571381317608285
 31
0.0
  0
LINE
  5
12B43
330
124BD
100
AcDbEntity
  8
0
100
AcDbLine
 10
4.509473664475917
 20
-9.597104604898216
 30
0.0
 11
4.494973131696177
 21
-9.584697228264129
 31
0.0
  0
LINE
  5
12B44
330
124BD
100
AcDbEntity
  8
0
100
AcDbLine
 10
4.431698071931458
 20
-9.526847681589444
 30
0.0
 11
4.415770268051147
 21
-9.510580866496418
 31
0.0
  0
LINE
  5
12B45
330
124BD
100
AcDbEntity
  8
0
100
AcDbLine
 10
4.396466347994486
 20
-8.851654541677529
 30
0.0
 11
4.414777049766231
 21
-8.818489879772492
 31
0.0
  0
LINE
  5
12B46
330
124BD
100
AcDbEntity
  8
0
100
AcDbLine
 10
4.330757605166729
 20
-9.062075336988581
 30
0.0
 11
4.337211455716385
 21
-9.026612114054159
 31
0.0
  0
LINE
  5
12B47
330
124BD
100
AcDbEntity
  8
0
100
AcDbLine
 10
4.32568456410172
 20
-9.097156087598666
 30
0.0
 11
4.330757605166729
 21
-9.062075336988581
 31
0.0
  0
LINE
  5
12B48
330
124BD
100
AcDbEntity
  8
0
100
AcDbLine
 10
4.354981986814397
 20
-8.955468179697096
 30
0.0
 11
4.366658868135136
 21
-8.920252432516853
 31
0.0
  0
LINE
  5
12B49
330
124BD
100
AcDbEntity
  8
0
100
AcDbLine
 10
4.345226216136879
 20
-8.990998900916601
 30
0.0
 11
4.354981986814397
 21
-8.955468179697096
 31
0.0
  0
LINE
  5
12B4A
330
124BD
100
AcDbEntity
  8
0
100
AcDbLine
 10
4.380436960485283
 20
-8.885584141497062
 30
0.0
 11
4.396466347994486
 21
-8.851654541677529
 31
0.0
  0
LINE
  5
12B4B
330
124BD
100
AcDbEntity
  8
0
100
AcDbLine
 10
4.366658868135136
 20
-8.920252432516853
 30
0.0
 11
4.380436960485283
 21
-8.885584141497062
 31
0.0
  0
LINE
  5
12B4C
330
124BD
100
AcDbEntity
  8
0
100
AcDbLine
 10
4.337211455716385
 20
-9.026612114054159
 30
0.0
 11
4.345226216136879
 21
-8.990998900916601
 31
0.0
  0
LINE
  5
12B4D
330
124BD
100
AcDbEntity
  8
0
100
AcDbLine
 10
4.458242407485105
 20
-8.754395368237354
 30
0.0
 11
4.48339706912612
 21
-8.723435517872939
 31
0.0
  0
LINE
  5
12B4E
330
124BD
100
AcDbEntity
  8
0
100
AcDbLine
 10
4.435369068647457
 20
-8.78607515541482
 30
0.0
 11
4.458242407485105
 21
-8.754395368237354
 31
0.0
  0
LINE
  5
12B4F
330
124BD
100
AcDbEntity
  8
0
100
AcDbLine
 10
4.414777049766231
 20
-8.818489879772492
 30
0.0
 11
4.435369068647457
 21
-8.78607515541482
 31
0.0
  0
LINE
  5
12B50
330
124BD
100
AcDbEntity
  8
0
100
AcDbLine
 10
4.48339706912612
 20
-8.723435517872939
 30
0.0
 11
4.510833056417439
 21
-8.693180603954441
 31
0.0
  0
LINE
  5
12B51
330
124BD
100
AcDbEntity
  8
0
100
AcDbLine
 10
4.510833056417439
 20
-8.693180603954441
 30
0.0
 11
4.540550372206007
 21
-8.663615626114701
 31
0.0
  0
LINE
  5
12B52
330
124BD
100
AcDbEntity
  8
0
100
AcDbLine
 10
4.270148555049773
 20
-7.786733588676155
 30
0.0
 11
4.210320522139275
 21
-7.809953753813142
 31
0.0
  0
LINE
  5
12B53
330
124BD
100
AcDbEntity
  8
0
100
AcDbLine
 10
4.041595120916431
 20
-7.900833213864678
 30
0.0
 11
3.990451395524017
 21
-7.938766058132073
 31
0.0
  0
LINE
  5
12B54
330
124BD
100
AcDbEntity
  8
0
100
AcDbLine
 10
3.89676948402011
 20
-8.024504048906912
 30
0.0
 11
3.854436670597298
 21
-8.071611360152363
 31
0.0
  0
LINE
  5
12B55
330
124BD
100
AcDbEntity
  8
0
100
AcDbLine
 10
3.942141954443798
 20
-7.980105975689812
 30
0.0
 11
3.89676948402011
 21
-8.024504048906912
 31
0.0
  0
LINE
  5
12B56
330
124BD
100
AcDbEntity
  8
0
100
AcDbLine
 10
3.990451395524017
 20
-7.938766058132073
 30
0.0
 11
3.942141954443798
 21
-7.980105975689812
 31
0.0
  0
LINE
  5
12B57
330
124BD
100
AcDbEntity
  8
0
100
AcDbLine
 10
4.095470444276694
 20
-7.866656360518638
 30
0.0
 11
4.041595120916431
 21
-7.900833213864678
 31
0.0
  0
LINE
  5
12B58
330
124BD
100
AcDbEntity
  8
0
100
AcDbLine
 10
4.210320522139275
 20
-7.809953753813142
 30
0.0
 11
4.151889102087444
 21
-7.836457847812268
 31
0.0
  0
LINE
  5
12B59
330
124BD
100
AcDbEntity
  8
0
100
AcDbLine
 10
4.151889102087444
 20
-7.836457847812268
 30
0.0
 11
4.095470444276694
 21
-7.866656360518638
 31
0.0
  0
LINE
  5
12B5A
330
124BD
100
AcDbEntity
  8
0
100
AcDbLine
 10
4.572549019338767
 20
-8.634725583986575
 30
0.0
 11
4.606800233264594
 21
-8.606536724284307
 31
0.0
  0
LINE
  5
12B5B
330
124BD
100
AcDbEntity
  8
0
100
AcDbLine
 10
4.451850837109034
 20
-7.732671767986888
 30
0.0
 11
4.391529861917069
 21
-7.748503085608134
 31
0.0
  0
LINE
  5
12B5C
330
124BD
100
AcDbEntity
  8
0
100
AcDbLine
 10
4.330757051436513
 20
-7.766386862556184
 30
0.0
 11
4.270148555049773
 21
-7.786733588676155
 31
0.0
  0
LINE
  5
12B5D
330
124BD
100
AcDbEntity
  8
0
100
AcDbLine
 10
4.391529861917069
 20
-7.748503085608134
 30
0.0
 11
4.330757051436513
 21
-7.766386862556184
 31
0.0
  0
LINE
  5
12B5E
330
124BD
100
AcDbEntity
  8
0
100
AcDbLine
 10
4.511103827629975
 20
-7.718482419847335
 30
0.0
 11
4.451850837109034
 21
-7.732671767986888
 31
0.0
  0
LINE
  5
12B5F
330
124BD
100
AcDbEntity
  8
0
100
AcDbLine
 10
4.568672684097482
 20
-7.705524551344369
 30
0.0
 11
4.511103827629975
 21
-7.718482419847335
 31
0.0
  0
ARC
  5
12B60
330
124BD
100
AcDbEntity
  8
0
100
AcDbCircle
 10
0.0
 20
-0.0499999999999998
 30
0.0
 40
0.05
100
AcDbArc
 50
90.0
 51
180.0
  0
LWPOLYLINE
  5
12B61
330
124BD
100
AcDbEntity
  8
0
100
AcDbPolyline
 90
      479
 70
     0
 43
0.0
 10
17.88721055899287
 20
-1.204381921121095
 10
17.88179346999146
 20
-1.215667017770835
 10
17.87444352054361
 20
-1.230270224945708
 10
17.8679055701465
 20
-1.242388472308924
 10
17.86192587229958
 20
-1.252465505570065
 10
17.8562506805023
 20
-1.260945070438728
 10
17.85062624825413
 20
-1.268270912624481
 10
17.84483266258554
 20
-1.274819159459109
 10
17.83878534465111
 20
-1.28069546476315
 10
17.83243354913645
 20
-1.285937863979347
 10
17.82572653072719
 20
-1.290584392550436
 10
17.81861354410891
 20
-1.294673085919153
 10
17.81104384396724
 20
-1.298241979528244
 10
17.80296668498778
 20
-1.301329108820437
 10
17.79433132185615
 20
-1.303972509238475
 10
17.78507009249243
 20
-1.306218668031284
 10
17.77504766775469
 20
-1.308147879672576
 10
17.76411180173544
 20
-1.30984889044223
 10
17.75211024852722
 20
-1.311410446620156
 10
17.73889076222255
 20
-1.312921294486233
 10
17.72430109691398
 20
-1.314470180320369
 10
17.70818900669403
 20
-1.316145850402442
 10
17.69040224565523
 20
-1.318037051012366
 10
17.6708012562353
 20
-1.32024731975726
 10
17.64929723425266
 20
-1.322939359553219
 10
17.62581406387096
 20
-1.326290664643575
 10
17.60027562925381
 20
-1.330478729271659
 10
17.57260581456483
 20
-1.335681047680797
 10
17.54272850396765
 20
-1.342075114114321
 10
17.51056758162588
 20
-1.349838422815569
 10
17.47604693170314
 20
-1.359148468027861
 10
17.43918981703551
 20
-1.370153162181829
 10
17.40041701514882
 20
-1.382882090457256
 10
17.36024868224136
 20
-1.397335256221236
 10
17.31920497451141
 20
-1.413512662840851
 10
17.27780604815726
 20
-1.431414313683182
 10
17.23657205937719
 20
-1.451040212115324
 10
17.19602316436949
 20
-1.472390361504357
 10
17.15667951933245
 20
-1.495464765217366
 10
17.11899573200149
 20
-1.520185242889635
 10
17.08316421626065
 20
-1.546160879229232
 10
17.04931183753112
 20
-1.572922575212427
 10
17.01756546123406
 20
-1.600001231815489
 10
16.98805195279068
 20
-1.626927750014678
 10
16.96089817762214
 20
-1.653233030786275
 10
16.93623100114963
 20
-1.67844797510653
 10
16.91417728879434
 20
-1.702103483951729
 10
16.89480258712115
 20
-1.723825546203494
 10
16.87792716726977
 20
-1.743620502364949
 10
16.86330998152364
 20
-1.761589780844571
 10
16.85070998216617
 20
-1.777834810050842
 10
16.8398861214808
 20
-1.792457018392253
 10
16.83059735175093
 20
-1.805557834277273
 10
16.82260262526
 20
-1.817238686114395
 10
16.81566089429142
 20
-1.8276010023121
 10
16.80954591237913
 20
-1.836752550098438
 10
16.80409063805903
 20
-1.844826451979745
 10
16.79914283111755
 20
-1.851962169281929
 10
16.7945502513411
 20
-1.858299163330899
 10
16.79016065851609
 20
-1.863976895452562
 10
16.78582181242894
 20
-1.869134826972816
 10
16.78138147286607
 20
-1.873912419217576
 10
16.7766873996139
 20
-1.878449133512747
 10
16.77162329794619
 20
-1.882850621995326
 10
16.76621665508619
 20
-1.887087300046713
 10
16.76053090374448
 20
-1.891095773859381
 10
16.75462947663165
 20
-1.894812649625815
 10
16.74857580645829
 20
-1.898174533538508
 10
16.742433325935
 20
-1.901118031789938
 10
16.73626546777236
 20
-1.903579750572593
 10
16.73013566468097
 20
-1.905496296078947
 10
16.7241094641747
 20
-1.906833857717154
 10
16.71826087298053
 20
-1.907676957757995
 10
16.71266601262872
 20
-1.908139701687912
 10
16.70740100464954
 20
-1.908336194993355
 10
16.70254197057325
 20
-1.908380543160753
 10
16.69816503193011
 20
-1.908386851676554
 10
16.69434631025039
 20
-1.908469226027206
 10
16.69116192706435
 20
-1.908741771699144
 10
16.68864148534748
 20
-1.90930380285158
 10
16.68662851385617
 20
-1.910195468334757
 10
16.68492002279203
 20
-1.911442125671673
 10
16.68331302235667
 20
-1.91306913238535
 10
16.6816045227517
 20
-1.915101845998776
 10
16.67959153417873
 20
-1.917565624034972
 10
16.67707106683939
 20
-1.920485824016944
 10
16.67384013093528
 20
-1.923887803467691
 10
16.66974859915814
 20
-1.927780015175471
 10
16.66485779416017
 20
-1.932103292989564
 10
16.65928190108372
 20
-1.93678156602449
 10
16.65313510507112
 20
-1.94173876339477
 10
16.64653159126472
 20
-1.946898814214931
 10
16.63958554480684
 20
-1.952185647599495
 10
16.63241115083982
 20
-1.957523192662989
 10
16.62512259450601
 20
-1.96283537851993
 10
16.61780445702327
 20
-1.968046134846027
 10
16.61042290391158
 20
-1.973079393561715
 10
16.60291449676648
 20
-1.977859087148592
 10
16.59521579718349
 20
-1.982309148088268
 10
16.58726336675814
 20
-1.986353508862364
 10
16.57899376708595
 20
-1.989916101952474
 10
16.57034355976245
 20
-1.992920859840215
 10
16.56124930638315
 20
-1.9952917150072
 10
16.55128599839219
 20
-1.996982181747734
 10
16.53858234662813
 20
-1.998064101606978
 10
16.52090549177813
 20
-1.998638897942776
 10
16.49602257452932
 20
-1.998807994112983
 10
16.4617007355689
 20
-1.998672813475462
 10
16.41570711558399
 20
-1.998334779388056
 10
16.35580885526177
 20
-1.997895315208633
 10
16.2797730952894
 20
-1.99745584429503
 10
16.18652992456523
 20
-1.997109338339216
 10
16.07966122483239
 20
-1.996914962369559
 10
15.96391182604523
 20
-1.99692342974852
 10
15.84402655815807
 20
-1.997185453838578
 10
15.72475025112524
 20
-1.997751748002196
 10
15.61082773490108
 20
-1.99867302560185
 10
15.50700383943993
 20
-2.000000000000003
 10
15.41802339469611
 20
-2.001783384559136
 10
15.34743656558298
 20
-2.004329570616841
 10
15.29401485684996
 20
-2.008967661411265
 10
15.2553351082055
 20
-2.017282438155669
 10
15.22897415935803
 20
-2.030858682063332
 10
15.21250885001601
 20
-2.051281174347521
 10
15.20351601988786
 20
-2.080134696221515
 10
15.19957250868205
 20
-2.119004028898577
 10
15.198255156107
 20
-2.169473953591984
 10
15.1975383184589
 20
-2.232326296115552
 10
15.19698641838488
 20
-2.305131060685305
 10
15.19656139511981
 20
-2.384655296117808
 10
15.19622518789856
 20
-2.467666051229632
 10
15.195939735956
 20
-2.550930374837353
 10
15.19566697852698
 20
-2.631215315757532
 10
15.1953688548464
 20
-2.705287922806741
 10
15.19500730414909
 20
-2.769915244801546
 10
15.19454215086668
 20
-2.822686302977868
 10
15.19392476021761
 20
-2.864478008248987
 10
15.1931043826171
 20
-2.896989243947532
 10
15.19203026848035
 20
-2.921918893406139
 10
15.19065166822254
 20
-2.94096583995743
 10
15.18891783225887
 20
-2.955828966934037
 10
15.18677801100455
 20
-2.968207157668594
 10
15.18418145487477
 20
-2.97979929549372
 10
15.18108798782663
 20
-2.992008438319627
 10
15.17749972798485
 20
-3.005054342366801
 10
15.17342936701602
 20
-3.018860938433315
 10
15.16888959658678
 20
-3.033352157317231
 10
15.16389310836373
 20
-3.048451929816614
 10
15.15845259401347
 20
-3.06408418672953
 10
15.15258074520264
 20
-3.08017285885405
 10
15.14629025359783
 20
-3.096641876988231
 10
15.13958112252048
 20
-3.113402493729823
 10
15.13240260191131
 20
-3.130315248875279
 10
15.12469125336583
 20
-3.147228004020736
 10
15.11638363847956
 20
-3.163988620762317
 10
15.10741631884804
 20
-3.180444960696174
 10
15.09772585606679
 20
-3.196444885418427
 10
15.08724881173134
 20
-3.211836256525213
 10
15.07592174743721
 20
-3.226466935612667
 10
15.06368756918976
 20
-3.240260853478853
 10
15.0505145606337
 20
-3.253446217729574
 10
15.03637734982357
 20
-3.266327305172562
 10
15.0212505648139
 20
-3.279208392615558
 10
15.00510883365924
 20
-3.292393756866278
 10
14.98792678441412
 20
-3.306187674732468
 10
14.9696790451331
 20
-3.320894423021859
 10
14.95034024387069
 20
-3.336818278542186
 10
14.92987470370106
 20
-3.354252596397273
 10
14.90820552777679
 20
-3.373447044875316
 10
14.88524551427006
 20
-3.394640370560608
 10
14.86090746135307
 20
-3.418071320037443
 10
14.83510416719801
 20
-3.443978639890114
 10
14.80774842997707
 20
-3.472601076702908
 10
14.77875304786244
 20
-3.504177377060114
 10
14.74803081902631
 20
-3.538946287546026
 10
14.7155900166816
 20
-3.577073301549078
 10
14.68182081420412
 20
-3.618430899674257
 10
14.64720886001041
 20
-3.662818309330702
 10
14.61223980251702
 20
-3.710034757927536
 10
14.57739929014049
 20
-3.759879472873891
 10
14.54317297129734
 20
-3.812151681578906
 10
14.51004649440414
 20
-3.866650611451706
 10
14.47850550787741
 20
-3.923175489901422
 10
14.44894968343985
 20
-3.981481080005333
 10
14.42143478603875
 20
-4.041144287513309
 10
14.39593060392759
 20
-4.101697553843355
 10
14.37240692535979
 20
-4.16267332041349
 10
14.35083353858883
 20
-4.223604028641713
 10
14.33118023186814
 20
-4.284022119946048
 10
14.31341679345119
 20
-4.343460035744503
 10
14.29751301159142
 20
-4.401450217455095
 10
14.28341830040319
 20
-4.45757038594303
 10
14.27100057744444
 20
-4.511579379862335
 10
14.260107386134
 20
-4.563281317314239
 10
14.25058626989073
 20
-4.612480316399964
 10
14.24228477213344
 20
-4.658980495220744
 10
14.23505043628098
 20
-4.702585971877796
 10
14.22873080575219
 20
-4.743100864472353
 10
14.22317342396592
 20
-4.78032929110564
 10
14.2182349103915
 20
-4.814158801213877
 10
14.21380818870031
 20
-4.844810669573241
 10
14.20979525861423
 20
-4.872589602294906
 10
14.20609811985516
 20
-4.897800305490032
 10
14.20261877214498
 20
-4.920747485269809
 10
14.19925921520556
 20
-4.941735847745394
 10
14.19592144875881
 20
-4.961070099027959
 10
14.19250747252659
 20
-4.979054945228681
 10
14.18893017435978
 20
-4.995951562773764
 10
14.1851459946251
 20
-5.011847009349589
 10
14.18112226181832
 20
-5.026784812957571
 10
14.17682630443513
 20
-5.040808501599129
 10
14.17222545097127
 20
-5.053961603275673
 10
14.16728702992247
 20
-5.066287645988626
 10
14.16197836978444
 20
-5.077830157739398
 10
14.15626679905292
 20
-5.088632666529412
 10
14.1501632049079
 20
-5.098740514658131
 10
14.14385270926644
 20
-5.10820630161725
 10
14.13756399272986
 20
-5.117084441196507
 10
14.13152573589951
 20
-5.125429347185643
 10
14.1259666193767
 20
-5.133295433374402
 10
14.12111532376277
 20
-5.140737113552524
 10
14.11720052965905
 20
-5.147808801509751
 10
14.11445091766687
 20
-5.15456491103582
 10
14.11301349674421
 20
-5.161103384483076
 10
14.11270858927576
 20
-5.167696278454246
 10
14.11327484600286
 20
-5.174659178114654
 10
14.11445091766683
 20
-5.182307668629621
 10
14.11597545500902
 20
-5.190957335164482
 10
14.11758710877077
 20
-5.200923762884552
 10
14.1190245296934
 20
-5.212522536955161
 10
14.12002636851827
 20
-5.226069242541636
 10
14.12036938942027
 20
-5.241770641999852
 10
14.11998281030849
 20
-5.259398206447911
 10
14.11883396252562
 20
-5.27861458419446
 10
14.11689017741432
 20
-5.299082423548157
 10
14.11411878631726
 20
-5.320464372817656
 10
14.11048712057709
 20
-5.342423080311603
 10
14.10596251153649
 20
-5.364621194338659
 10
14.10051229053812
 20
-5.386721363207466
 10
14.09412919788036
 20
-5.408413441279786
 10
14.08690760968439
 20
-5.429496107129764
 10
14.07896731102709
 20
-5.449795245384648
 10
14.07042808698535
 20
-5.469136740671685
 10
14.06140972263607
 20
-5.487346477618127
 10
14.05203200305611
 20
-5.504250340851229
 10
14.04241471332239
 20
-5.519674214998235
 10
14.03267763851178
 20
-5.53344398468639
 10
14.02292967367424
 20
-5.545441759263659
 10
14.01323615375196
 20
-5.555774546960843
 10
14.00365152366026
 20
-5.564605580729446
 10
13.99423022831439
 20
-5.572098093520991
 10
13.98502671262964
 20
-5.578415318286981
 10
13.97609542152128
 20
-5.583720487978935
 10
13.9674907999046
 20
-5.588176835548353
 10
13.95926729269489
 20
-5.591947593946755
 10
13.95147208652925
 20
-5.595183300528712
 10
13.94412333493217
 20
-5.597983710261082
 10
13.93723193314998
 20
-5.600435882513784
 10
13.93080877642901
 20
-5.602626876656723
 10
13.9248647600156
 20
-5.604643752059833
 10
13.91941077915607
 20
-5.606573568093021
 10
13.91445772909674
 20
-5.608503384126211
 10
13.91001650508395
 20
-5.610520259529322
 10
13.90605625765618
 20
-5.612713067128544
 10
13.90237915852055
 20
-5.615177933575218
 10
13.89874563467637
 20
-5.61801279897696
 10
13.89491611312288
 20
-5.62131560344138
 10
13.8906510208594
 20
-5.625184287076105
 10
13.88571078488519
 20
-5.629716789988736
 10
13.87985583219955
 20
-5.635011052286889
 10
13.87284658980174
 20
-5.641165014078189
 10
13.8644997473787
 20
-5.648229458872719
 10
13.85485704536784
 20
-5.656066543790477
 10
13.84401648689422
 20
-5.664491269353921
 10
13.8320760750829
 20
-5.673318636085528
 10
13.81913381305893
 20
-5.682363644507751
 10
13.80528770394738
 20
-5.691441295143072
 10
13.7906357508733
 20
-5.700366588513943
 10
13.77527595696175
 20
-5.708954525142842
 10
13.75930995661207
 20
-5.717060007763444
 10
13.74285390932074
 20
-5.724697547954282
 10
13.72602760585856
 20
-5.731921559505091
 10
13.70895083699625
 20
-5.738786456205612
 10
13.69174339350463
 20
-5.745346651845596
 10
13.67452506615444
 20
-5.751656560214784
 10
13.65741564571646
 20
-5.75777059510291
 10
13.64053492296147
 20
-5.763743170299716
 10
13.62397546335564
 20
-5.769625071279439
 10
13.60772093114685
 20
-5.775452570254219
 10
13.59172776527837
 20
-5.781258311120686
 10
13.57595240469349
 20
-5.787074937775487
 10
13.56035128833548
 20
-5.792935094115244
 10
13.54488085514763
 20
-5.798871424036591
 10
13.5294975440732
 20
-5.804916571436165
 10
13.51415779405551
 20
-5.811103180210603
 10
13.49883256344105
 20
-5.817489287133937
 10
13.48355088818944
 20
-5.824234500489837
 10
13.46835632366349
 20
-5.831523821439383
 10
13.45329242522605
 20
-5.839542251143652
 10
13.43840274823995
 20
-5.848474790763719
 10
13.42373084806803
 20
-5.858506441460661
 10
13.40932028007312
 20
-5.869822204395551
 10
13.39521459961806
 20
-5.882607080729472
 10
13.38148095751945
 20
-5.896989846341605
 10
13.36828088640897
 20
-5.912874375983569
 10
13.35579951437204
 20
-5.930108319125094
 10
13.34422196949411
 20
-5.94853932523591
 10
13.33373337986061
 20
-5.968015043785745
 10
13.32451887355699
 20
-5.988383124244323
 10
13.31676357866866
 20
-6.009491216081376
 10
13.31065262328109
 20
-6.031186968766637
 10
13.30632189097812
 20
-6.053309421289719
 10
13.3037102873374
 20
-6.075663170719804
 10
13.30270747343496
 20
-6.098044203645957
 10
13.30320311034687
 20
-6.120248506657252
 10
13.30508685914919
 20
-6.14207206634276
 10
13.30824838091795
 20
-6.163310869291543
 10
13.31257733672924
 20
-6.183760902092681
 10
13.3179633876591
 20
-6.203218151335236
 10
13.3242897943839
 20
-6.221528621667531
 10
13.33141421598122
 20
-6.238738389974929
 10
13.33918791112899
 20
-6.254943551202026
 10
13.34746213850511
 20
-6.270240200293438
 10
13.35608815678749
 20
-6.284724432193766
 10
13.36491722465402
 20
-6.298492341847617
 10
13.37380060078264
 20
-6.311640024199612
 10
13.38258954385123
 20
-6.324263574194341
 10
13.39115898343543
 20
-6.336447352201891
 10
13.39947853270178
 20
-6.348228780294204
 10
13.40754147571453
 20
-6.359633545968692
 10
13.41534109653794
 20
-6.370687336722764
 10
13.42287067923627
 20
-6.381415840053844
 10
13.43012350787377
 20
-6.391844743459334
 10
13.43709286651469
 20
-6.401999734436651
 10
13.44377203922331
 20
-6.411906500483202
 10
13.4501538830226
 20
-6.42159262925515
 10
13.45622954677046
 20
-6.431093309043608
 10
13.4619897522835
 20
-6.440445628298442
 10
13.46742522137836
 20
-6.449686675469524
 10
13.47252667587166
 20
-6.458853539006706
 10
13.47728483758002
 20
-6.467983307359848
 10
13.48169042832007
 20
-6.477113068978819
 10
13.48573416990843
 20
-6.486279912313485
 10
13.4894145159812
 20
-6.495493110037489
 10
13.4927608474524
 20
-6.504650671719612
 10
13.49581027705555
 20
-6.513622791152426
 10
13.49859991752416
 20
-6.52227966212849
 10
13.50116688159172
 20
-6.530491478440375
 10
13.50354828199176
 20
-6.53812843388065
 10
13.50578123145777
 20
-6.545060722241873
 10
13.50790284272325
 20
-6.551158537316621
 10
13.51002290715036
 20
-6.556394064170443
 10
13.51254193061572
 20
-6.561147452960855
 10
13.51593309762461
 20
-6.565900845118354
 10
13.5206695926823
 20
-6.571136382073436
 10
13.52722460029406
 20
-6.577336205256609
 10
13.53607130496516
 20
-6.584982456098361
 10
13.54768289120087
 20
-6.594557276029205
 10
13.56253254350647
 20
-6.606542806479633
 10
13.58091870869043
 20
-6.62130528929816
 10
13.60244088277406
 20
-6.638747368005383
 10
13.62652382408191
 20
-6.658655786539896
 10
13.65259229093848
 20
-6.680817288840304
 10
13.68007104166832
 20
-6.70501861884522
 10
13.70838483459595
 20
-6.731046520493241
 10
13.73695842804589
 20
-6.758687737722968
 10
13.76521658034268
 20
-6.787729014473009
 10
13.79267682974663
 20
-6.81796945749859
 10
13.81922783426133
 20
-6.849257624821421
 10
13.84485103182611
 20
-6.881454437279832
 10
13.86952786038036
 20
-6.914420815712147
 10
13.89323975786342
 20
-6.948017680956701
 10
13.91596816221467
 20
-6.982105953851822
 10
13.93769451137347
 20
-7.016546555235842
 10
13.95840024327917
 20
-7.051200405947084
 10
13.97805288049404
 20
-7.085917609780223
 10
13.99656428407193
 20
-7.120505002355307
 10
14.01383239968956
 20
-7.154758602248711
 10
14.02975517302369
 20
-7.188474428036816
 10
14.04423054975105
 20
-7.22144849829602
 10
14.05715647554838
 20
-7.253476831602699
 10
14.06843089609242
 20
-7.284355446533225
 10
14.07795175705991
 20
-7.313880361664
 10
14.0856618472571
 20
-7.341972766424075
 10
14.09168332800833
 20
-7.369054533653218
 10
14.09618320376743
 20
-7.395672707043877
 10
14.09932847898823
 20
-7.422374330288502
 10
14.10128615812458
 20
-7.449706447079528
 10
14.10222324563031
 20
-7.478216101109407
 10
14.10230674595928
 20
-7.508450336070588
 10
14.1017036635653
 20
-7.540956195655511
 10
14.10049595383694
 20
-7.576163279324039
 10
14.09842537590147
 20
-7.6140314096057
 10
14.09514863982091
 20
-7.654402964797429
 10
14.09032245565726
 20
-7.697120323196176
 10
14.08360353347253
 20
-7.742025863098874
 10
14.07464858332871
 20
-7.78896196280247
 10
14.06311431528781
 20
-7.837771000603898
 10
14.04865743941184
 20
-7.888295354800111
 10
14.03104291028653
 20
-7.940318680870267
 10
14.01046866059265
 20
-7.993389743022482
 10
13.98724086753466
 20
-8.04699858264707
 10
13.96166570831708
 20
-8.100635241134373
 10
13.93404936014438
 20
-8.153789759874719
 10
13.90469800022106
 20
-8.205952180258435
 10
13.87391780575161
 20
-8.25661254367586
 10
13.84201495394052
 20
-8.305260891517317
 10
13.8092810987931
 20
-8.351504649078776
 10
13.77594980151794
 20
-8.395420777278712
 10
13.74224010012443
 20
-8.437203620941247
 10
13.70837103262196
 20
-8.477047524890487
 10
13.67456163701996
 20
-8.515146833950559
 10
13.64103095132781
 20
-8.551695892945573
 10
13.60799801355491
 20
-8.586889046699642
 10
13.57568186171066
 20
-8.620920640036882
 10
13.54426036370439
 20
-8.653983191979143
 10
13.51374670704507
 20
-8.686261918339223
 10
13.48411290914159
 20
-8.71794020912765
 10
13.45533098740286
 20
-8.749201454354956
 10
13.42737295923775
 20
-8.780229044031667
 10
13.4002108420552
 20
-8.811206368168317
 10
13.37381665326407
 20
-8.842316816775436
 10
13.34816241027326
 20
-8.873743779863556
 10
13.32324753847502
 20
-8.905649139060429
 10
13.299181095195
 20
-8.938108742462688
 10
13.27609954574217
 20
-8.971176929784174
 10
13.25413935542551
 20
-9.004908040738765
 10
13.233436989554
 20
-9.039356415040302
 10
13.21412891343665
 20
-9.074576392402647
 10
13.19635159238242
 20
-9.110622312539643
 10
13.1802414917003
 20
-9.147548515165158
 10
13.1658844974565
 20
-9.185365513162754
 10
13.15316417874607
 20
-9.223908512094901
 10
13.14191352542128
 20
-9.262968890693773
 10
13.13196552733442
 20
-9.302338027691554
 10
13.12315317433777
 20
-9.341807301820416
 10
13.1153094562836
 20
-9.381168091812558
 10
13.10826736302418
 20
-9.42021177640013
 10
13.10185988441181
 20
-9.458729734315337
 10
13.0959249639775
 20
-9.496517628065227
 10
13.09032035996734
 20
-9.533388255256411
 10
13.08490878430614
 20
-9.569158697270349
 10
13.07955294891876
 20
-9.60364603548853
 10
13.07411556573
 20
-9.636667351292434
 10
13.06845934666472
 20
-9.66803972606354
 10
13.06244700364773
 20
-9.697580241183317
 10
13.05594124860387
 20
-9.725105978033251
 10
13.04883531694464
 20
-9.750487566443517
 10
13.04114453802825
 20
-9.77380983003908
 10
13.03291476469959
 20
-9.795211140893584
 10
13.02419184980353
 20
-9.814829871080689
 10
13.01502164618495
 20
-9.832804392674063
 10
13.00545000668875
 20
-9.849273077747344
 10
12.99552278415978
 20
-9.864374298374205
 10
12.98528583144294
 20
-9.878246426628294
 10
12.97478738664586
 20
-9.891006799837217
 10
12.96408522892718
 20
-9.902688616344409
 10
12.95323952270827
 20
-9.913304039747245
 10
12.94231043241054
 20
-9.922865233643108
 10
12.93135812245535
 20
-9.931384361629373
 10
12.92044275726411
 20
-9.938873587303419
 10
12.90962450125819
 20
-9.945345074262633
 10
12.89896351885899
 20
-9.950810986104389
 10
12.88850444631824
 20
-9.955295202060735
 10
12.87822980720913
 20
-9.958868463902444
 10
12.86810659693519
 20
-9.961613229034927
 10
12.85810181089993
 20
-9.963611954863608
 10
12.84818244450692
 20
-9.964947098793931
 10
12.83831549315966
 20
-9.965701118231322
 10
12.82846795226171
 20
-9.9659564705812
 10
12.8186068172166
 20
-9.965795613249007
 10
12.80863565973257
 20
-9.965221453713297
 10
12.79820435673678
 20
-9.963918699745217
 10
12.78689936146111
 20
-9.961492509189046
 10
12.77430712713745
 20
-9.957548039889076
 10
12.76001410699768
 20
-9.951690449689575
 10
12.74360675427366
 20
-9.94352489643483
 10
12.72467152219727
 20
-9.932656537969119
 10
12.70279486400041
 20
-9.918690532136729
  0
LWPOLYLINE
  5
12D42
330
124BD
100
AcDbEntity
  8
0
100
AcDbPolyline
 90
      248
 70
     0
 43
0.0
 10
11.52546219440987
 20
-5.211480907924955
 10
11.52651303877103
 20
-5.259398206447913
 10
11.52766188655391
 20
-5.278614584194461
 10
11.52960567166521
 20
-5.299082423548159
 10
11.53237706276227
 20
-5.320464372817657
 10
11.53600872850244
 20
-5.342423080311605
 10
11.54053333754304
 20
-5.364621194338661
 10
11.54598355854141
 20
-5.386721363207468
 10
11.55236665119917
 20
-5.408413441279788
 10
11.55958823939514
 20
-5.429496107129765
 10
11.56752853805244
 20
-5.44979524538465
 10
11.57606776209417
 20
-5.469136740671687
 10
11.58508612644347
 20
-5.487346477618129
 10
11.59446384602342
 20
-5.504250340851231
 10
11.60408113575714
 20
-5.519674214998237
 10
11.61381821056775
 20
-5.533443984686392
 10
11.62356617540529
 20
-5.545441759263661
 10
11.63325969532757
 20
-5.555774546960845
 10
11.64284432541927
 20
-5.564605580729447
 10
11.65226562076514
 20
-5.572098093520993
 10
11.6614691364499
 20
-5.578415318286983
 10
11.67040042755825
 20
-5.583720487978937
 10
11.67900504917492
 20
-5.588176835548355
 10
11.68722855638464
 20
-5.591947593946756
 10
11.69502376255028
 20
-5.595183300528714
 10
11.70237251414737
 20
-5.597983710261083
 10
11.70926391592955
 20
-5.600435882513786
 10
11.71568707265051
 20
-5.602626876656725
 10
11.72163108906392
 20
-5.604643752059835
 10
11.72708506992346
 20
-5.606573568093023
 10
11.73203811998279
 20
-5.608503384126213
 10
11.73647934399558
 20
-5.610520259529324
 10
11.74043959142335
 20
-5.612713067128546
 10
11.74411669055897
 20
-5.61517793357522
 10
11.74775021440316
 20
-5.618012798976962
 10
11.75157973595665
 20
-5.621315603441382
 10
11.75584482822014
 20
-5.625184287076106
 10
11.76078506419434
 20
-5.629716789988738
 10
11.76664001687998
 20
-5.63501105228689
 10
11.77364925927778
 20
-5.641165014078191
 10
11.78199610170083
 20
-5.64822945887272
 10
11.79163880371169
 20
-5.656066543790479
 10
11.80247936218531
 20
-5.664491269353923
 10
11.81441977399663
 20
-5.67331863608553
 10
11.8273620360206
 20
-5.682363644507753
 10
11.84120814513214
 20
-5.691441295143074
 10
11.85586009820623
 20
-5.700366588513944
 10
11.87121989211778
 20
-5.708954525142844
 10
11.88718589246746
 20
-5.717060007763445
 10
11.90364193975878
 20
-5.724697547954282
 10
11.92046824322098
 20
-5.731921559505091
 10
11.93754501208327
 20
-5.738786456205612
 10
11.9547524555749
 20
-5.745346651845596
 10
11.97197078292508
 20
-5.751656560214784
 10
11.98908020336306
 20
-5.75777059510291
 10
12.00596092611806
 20
-5.763743170299716
 10
12.02252038572389
 20
-5.769625071279439
 10
12.03877491793268
 20
-5.775452570254219
 10
12.05476808380115
 20
-5.781258311120686
 10
12.07054344438603
 20
-5.787074937775487
 10
12.08614456074405
 20
-5.792935094115244
 10
12.1016149939319
 20
-5.798871424036591
 10
12.11699830500632
 20
-5.804916571436165
 10
12.13233805502402
 20
-5.811103180210603
 10
12.14766328563847
 20
-5.817489287133937
 10
12.16294496089009
 20
-5.824234500489837
 10
12.17813952541604
 20
-5.831523821439383
 10
12.19320342385348
 20
-5.839542251143652
 10
12.20809310083958
 20
-5.848474790763719
 10
12.2227650010115
 20
-5.858506441460661
 10
12.23717556900641
 20
-5.869822204395551
 10
12.25128124946147
 20
-5.882607080729472
 10
12.26501489156008
 20
-5.896989846341605
 10
12.27821496267056
 20
-5.912874375983569
 10
12.29069633470749
 20
-5.930108319125094
 10
12.30227387958542
 20
-5.94853932523591
 10
12.31276246921892
 20
-5.968015043785745
 10
12.32197697552254
 20
-5.988383124244323
 10
12.32973227041086
 20
-6.009491216081376
 10
12.33584322579844
 20
-6.031186968766637
 10
12.34017395810141
 20
-6.053309421289719
 10
12.34278556174214
 20
-6.075663170719804
 10
12.34378837564457
 20
-6.098044203645957
 10
12.34329273873266
 20
-6.120248506657252
 10
12.34140898993034
 20
-6.14207206634276
 10
12.33824746816157
 20
-6.163310869291543
 10
12.33391851235029
 20
-6.183760902092681
 10
12.32853246142043
 20
-6.203218151335236
 10
12.32220605469564
 20
-6.221528621667531
 10
12.31508163309831
 20
-6.238738389974929
 10
12.30730793795054
 20
-6.254943551202026
 10
12.29903371057442
 20
-6.270240200293438
 10
12.29040769229204
 20
-6.284724432193766
 10
12.2815786244255
 20
-6.298492341847617
 10
12.27269524829689
 20
-6.311640024199612
 10
12.2639063052283
 20
-6.324263574194341
 10
12.25533686564409
 20
-6.336447352201891
 10
12.24701731637775
 20
-6.348228780294204
 10
12.23895437336499
 20
-6.359633545968692
 10
12.23115475254159
 20
-6.370687336722764
 10
12.22362516984326
 20
-6.381415840053844
 10
12.21637234120576
 20
-6.391844743459334
 10
12.20940298256483
 20
-6.401999734436651
 10
12.20272380985621
 20
-6.411906500483202
 10
12.19634196605693
 20
-6.42159262925515
 10
12.19026630230907
 20
-6.431093309043608
 10
12.18450609679603
 20
-6.440445628298442
 10
12.17907062770117
 20
-6.449686675469524
 10
12.17396917320786
 20
-6.458853539006706
 10
12.1692110114995
 20
-6.467983307359848
 10
12.16480542075946
 20
-6.477113068978819
 10
12.1607616791711
 20
-6.486279912313485
 10
12.15708133309833
 20
-6.495493110037489
 10
12.15373500162713
 20
-6.504650671719612
 10
12.15068557202398
 20
-6.513622791152426
 10
12.14789593155537
 20
-6.52227966212849
 10
12.1453289674878
 20
-6.530491478440375
 10
12.14294756708777
 20
-6.53812843388065
 10
12.14071461762176
 20
-6.545060722241873
 10
12.13859300635627
 20
-6.551158537316621
 10
12.13647294192917
 20
-6.556394064170443
 10
12.13395391846381
 20
-6.561147452960855
 10
12.13056275145492
 20
-6.565900845118354
 10
12.12582625639723
 20
-6.571136382073436
 10
12.11927124878547
 20
-6.577336205256609
 10
12.11042454411436
 20
-6.584982456098361
 10
12.09881295787865
 20
-6.594557276029205
 10
12.08396330557306
 20
-6.606542806479633
 10
12.0655771403891
 20
-6.62130528929816
 10
12.04405496630547
 20
-6.638747368005383
 10
12.01997202499762
 20
-6.658655786539896
 10
11.99390355814104
 20
-6.680817288840304
 10
11.96642480741121
 20
-6.70501861884522
 10
11.93811101448358
 20
-6.731046520493241
 10
11.90953742103364
 20
-6.758687737722968
 10
11.88127926873685
 20
-6.787729014473009
 10
11.8538190193329
 20
-6.81796945749859
 10
11.8272680148182
 20
-6.849257624821421
 10
11.80164481725341
 20
-6.881454437279832
 10
11.77696798869917
 20
-6.914420815712147
 10
11.7532560912161
 20
-6.948017680956701
 10
11.73052768686486
 20
-6.982105953851822
 10
11.70880133770606
 20
-7.016546555235842
 10
11.68809560580035
 20
-7.051200405947084
 10
11.66844296858548
 20
-7.085917609780223
 10
11.64993156500759
 20
-7.120505002355307
 10
11.63266344938996
 20
-7.154758602248711
 10
11.61674067605583
 20
-7.188474428036816
 10
11.60226529932848
 20
-7.22144849829602
 10
11.58933937353115
 20
-7.253476831602699
 10
11.57806495298711
 20
-7.284355446533225
 10
11.56854409201962
 20
-7.313880361664
 10
11.56083400182242
 20
-7.341972766424075
 10
11.5548125210712
 20
-7.369054533653218
 10
11.55031264531211
 20
-7.395672707043877
 10
11.5471673700913
 20
-7.422374330288502
 10
11.54520969095495
 20
-7.449706447079528
 10
11.54427260344922
 20
-7.478216101109407
 10
11.54418910312025
 20
-7.508450336070588
 10
11.54479218551423
 20
-7.540956195655511
 10
11.5459998952426
 20
-7.576163279324039
 10
11.54807047317806
 20
-7.6140314096057
 10
11.55134720925862
 20
-7.654402964797429
 10
11.55617339342226
 20
-7.697120323196176
 10
11.562892315607
 20
-7.742025863098874
 10
11.57184726575082
 20
-7.78896196280247
 10
11.58338153379171
 20
-7.837771000603898
 10
11.59783840966769
 20
-7.888295354800111
 10
11.61545293879299
 20
-7.940318680870267
 10
11.63602718848688
 20
-7.993389743022482
 10
11.65925498154486
 20
-8.04699858264707
 10
11.68483014076245
 20
-8.100635241134373
 10
11.71244648893515
 20
-8.153789759874719
 10
11.74179784885847
 20
-8.205952180258435
 10
11.77257804332792
 20
-8.25661254367586
 10
11.80448089513901
 20
-8.305260891517317
 10
11.83721475028642
 20
-8.351504649078776
 10
11.87054604756158
 20
-8.395420777278712
 10
11.9042557489551
 20
-8.437203620941247
 10
11.93812481645756
 20
-8.477047524890487
 10
11.97193421205957
 20
-8.515146833950559
 10
12.00546489775172
 20
-8.551695892945573
 10
12.03849783552462
 20
-8.586889046699642
 10
12.07081398736887
 20
-8.620920640036882
 10
12.10223548537514
 20
-8.653983191979143
 10
12.13274914203446
 20
-8.686261918339223
 10
12.16238293993794
 20
-8.71794020912765
 10
12.19116486167667
 20
-8.749201454354956
 10
12.21912288984177
 20
-8.780229044031667
 10
12.24628500702433
 20
-8.811206368168317
 10
12.27267919581546
 20
-8.842316816775436
 10
12.29833343880627
 20
-8.873743779863556
 10
12.3232483106045
 20
-8.905649139060429
 10
12.34731475388453
 20
-8.938108742462688
 10
12.37039630333736
 20
-8.971176929784174
 10
12.39235649365402
 20
-9.004908040738765
 10
12.41305885952552
 20
-9.039356415040302
 10
12.43236693564288
 20
-9.074576392402647
 10
12.45014425669711
 20
-9.110622312539643
 10
12.46625435737923
 20
-9.147548515165158
 10
12.48061135162303
 20
-9.185365513162754
 10
12.49333167033346
 20
-9.223908512094901
 10
12.50458232365825
 20
-9.262968890693773
 10
12.51453032174511
 20
-9.302338027691554
 10
12.52334267474176
 20
-9.341807301820416
 10
12.53118639279593
 20
-9.381168091812558
 10
12.53822848605535
 20
-9.42021177640013
 10
12.54463596466772
 20
-9.458729734315337
 10
12.55057088510203
 20
-9.496517628065227
 10
12.55617548911219
 20
-9.533388255256411
 10
12.56158706477339
 20
-9.569158697270349
 10
12.56694290016077
 20
-9.60364603548853
 10
12.57238028334953
 20
-9.636667351292434
 10
12.57803650241481
 20
-9.66803972606354
 10
12.5840488454318
 20
-9.697580241183317
 10
12.59055460047566
 20
-9.725105978033251
 10
12.59766053213489
 20
-9.750487566443517
 10
12.60535131105127
 20
-9.77380983003908
 10
12.61358108437994
 20
-9.795211140893584
 10
12.62230399927599
 20
-9.814829871080689
 10
12.63147420289457
 20
-9.832804392674063
 10
12.64104584239078
 20
-9.849273077747344
 10
12.65097306491975
 20
-9.864374298374205
 10
12.66121001763659
 20
-9.878246426628294
 10
12.67170846243367
 20
-9.891006799837217
 10
12.68241062015236
 20
-9.902688616344409
 10
12.69325632637126
 20
-9.913304039747245
 10
12.70418541666899
 20
-9.922865233643108
 10
12.71513772662418
 20
-9.931384361629373
 10
12.72605309181542
 20
-9.938873587303419
 10
12.73687134782134
 20
-9.945345074262633
 10
12.74753233022054
 20
-9.950810986104389
 10
12.75799140276129
 20
-9.955295202060735
 10
12.7682660418704
 20
-9.958868463902444
 10
12.77838925214435
 20
-9.961613229034927
 10
12.7883940381796
 20
-9.963611954863608
 10
12.79831340457261
 20
-9.964947098793931
 10
12.80818035591986
 20
-9.965701118231322
 10
12.81802789681782
 20
-9.9659564705812
 10
12.82788903186293
 20
-9.965795613249007
 10
12.83786018934696
 20
-9.965221453713297
 10
12.84829149234275
 20
-9.963918699745217
 10
12.85959648761841
 20
-9.961492509189046
 10
12.87218872194207
 20
-9.957548039889076
 10
12.88648174208185
 20
-9.951690449689575
 10
12.90288909480587
 20
-9.94352489643483
 10
12.92182432688225
 20
-9.932656537969119
 10
12.94370098507911
 20
-9.918690532136729
  0
LINE
  5
12E3C
330
124BD
100
AcDbEntity
  8
0
100
AcDbLine
 10
5.573453227379717
 20
-9.595923377333363
 30
0.0
 11
5.523112164966859
 21
-9.635868647680592
 31
0.0
  0
LINE
  5
12E3D
330
124BD
100
AcDbEntity
  8
0
100
AcDbLine
 10
6.397460376855029
 20
-9.591101216232111
 30
0.0
 11
6.374710888162287
 21
-9.656172051013069
 31
0.0
  0
LINE
  5
12E3E
330
124BD
100
AcDbEntity
  8
0
100
AcDbLine
 10
6.212191278316414
 20
-9.942330277070915
 30
0.0
 11
6.168925925125751
 21
-9.996864153942954
 31
0.0
  0
LINE
  5
12E3F
330
124BD
100
AcDbEntity
  8
0
100
AcDbLine
 10
5.415726938412081
 20
-9.715307978678065
 30
0.0
 11
5.358663204392124
 21
-9.755026405089232
 31
0.0
  0
LINE
  5
12E40
330
124BD
100
AcDbEntity
  8
0
100
AcDbLine
 10
5.42385783430001
 20
-10.59067369659578
 30
0.0
 11
5.35367430603377
 21
-10.62544567505825
 31
0.0
  0
LINE
  5
12E41
330
124BD
100
AcDbEntity
  8
0
100
AcDbLine
 10
5.033584318638455
 20
-10.78484556807542
 30
0.0
 11
4.944761023517409
 21
-10.83349070615823
 31
0.0
  0
LINE
  5
12E42
330
124BD
100
AcDbEntity
  8
0
100
AcDbLine
 10
4.853819630412663
 20
-10.88650656130529
 30
0.0
 11
4.761501490184395
 21
-10.94416729818601
 31
0.0
  0
LINE
  5
12E43
330
124BD
100
AcDbEntity
  8
0
100
AcDbLine
 10
4.761501490184395
 20
-10.94416729818601
 30
0.0
 11
4.668481406043097
 21
-11.00680628472157
 31
0.0
  0
LINE
  5
12E44
330
124BD
100
AcDbEntity
  8
0
100
AcDbLine
 10
4.944761023517409
 20
-10.83349070615823
 30
0.0
 11
4.853819630412663
 21
-10.88650656130529
 31
0.0
  0
LINE
  5
12E45
330
124BD
100
AcDbEntity
  8
0
100
AcDbLine
 10
5.201389227313383
 20
-10.69951277510456
 30
0.0
 11
5.11932835587295
 21
-10.74037747961673
 31
0.0
  0
LINE
  5
12E46
330
124BD
100
AcDbEntity
  8
0
100
AcDbLine
 10
5.11932835587295
 20
-10.74037747961673
 30
0.0
 11
5.033584318638455
 21
-10.78484556807542
 31
0.0
  0
LINE
  5
12E47
330
124BD
100
AcDbEntity
  8
0
100
AcDbLine
 10
5.279530899172224
 20
-10.66146817959037
 30
0.0
 11
5.201389227313383
 21
-10.69951277510456
 31
0.0
  0
LINE
  5
12E48
330
124BD
100
AcDbEntity
  8
0
100
AcDbLine
 10
5.35367430603377
 20
-10.62544567505825
 30
0.0
 11
5.279530899172224
 21
-10.66146817959037
 31
0.0
  0
LINE
  5
12E49
330
124BD
100
AcDbEntity
  8
0
100
AcDbLine
 10
5.039258824007486
 20
-9.958123223439745
 30
0.0
 11
4.968603816331761
 21
-10.00062523341388
 31
0.0
  0
LINE
  5
12E4A
330
124BD
100
AcDbEntity
  8
0
100
AcDbLine
 10
4.895832375028735
 20
-10.04430623520793
 30
0.0
 11
4.821036083369678
 21
-10.08945698341313
 31
0.0
  0
LINE
  5
12E4B
330
124BD
100
AcDbEntity
  8
0
100
AcDbLine
 10
4.821036083369678
 20
-10.08945698341313
 30
0.0
 11
4.744306524625846
 21
-10.13636823262073
 31
0.0
  0
LINE
  5
12E4C
330
124BD
100
AcDbEntity
  8
0
100
AcDbLine
 10
4.744306524625846
 20
-10.13636823262073
 30
0.0
 11
4.665735282068503
 21
-10.18533073742196
 31
0.0
  0
LINE
  5
12E4D
330
124BD
100
AcDbEntity
  8
0
100
AcDbLine
 10
4.968603816331761
 20
-10.00062523341388
 30
0.0
 11
4.895832375028735
 21
-10.04430623520793
 31
0.0
  0
LINE
  5
12E4E
330
124BD
100
AcDbEntity
  8
0
100
AcDbLine
 10
5.237744570171951
 20
-9.835021694138763
 30
0.0
 11
5.173870100093704
 21
-9.875522922538038
 31
0.0
  0
LINE
  5
12E4F
330
124BD
100
AcDbEntity
  8
0
100
AcDbLine
 10
5.107705814784649
 20
-9.916509450694277
 30
0.0
 11
5.039258824007486
 21
-9.958123223439745
 31
0.0
  0
LINE
  5
12E50
330
124BD
100
AcDbEntity
  8
0
100
AcDbLine
 10
5.173870100093704
 20
-9.875522922538038
 30
0.0
 11
5.107705814784649
 21
-9.916509450694277
 31
0.0
  0
LINE
  5
12E51
330
124BD
100
AcDbEntity
  8
0
100
AcDbLine
 10
5.299339009958421
 20
-9.794893582615976
 30
0.0
 11
5.237744570171951
 21
-9.835021694138763
 31
0.0
  0
LINE
  5
12E52
330
124BD
100
AcDbEntity
  8
0
100
AcDbLine
 10
5.358663204392124
 20
-9.755026405089232
 30
0.0
 11
5.299339009958421
 21
-9.794893582615976
 31
0.0
  0
LINE
  5
12E53
330
124BD
100
AcDbEntity
  8
0
100
AcDbLine
 10
5.553193208154088
 20
-10.52190596719662
 30
0.0
 11
5.490256069866617
 21
-10.55640587224668
 31
0.0
  0
LINE
  5
12E54
330
124BD
100
AcDbEntity
  8
0
100
AcDbLine
 10
5.490256069866617
 20
-10.55640587224668
 30
0.0
 11
5.42385783430001
 21
-10.59067369659578
 31
0.0
  0
LINE
  5
12E55
330
124BD
100
AcDbEntity
  8
0
100
AcDbLine
 10
5.790482229056195
 20
-10.36243787762445
 30
0.0
 11
5.731548711192367
 21
-10.40682015852083
 31
0.0
  0
LINE
  5
12E56
330
124BD
100
AcDbEntity
  8
0
100
AcDbLine
 10
5.613392175498326
 20
-10.48627337034808
 30
0.0
 11
5.553193208154088
 21
-10.52190596719662
 31
0.0
  0
LINE
  5
12E57
330
124BD
100
AcDbEntity
  8
0
100
AcDbLine
 10
5.672480673055581
 20
-10.44814470198169
 30
0.0
 11
5.613392175498326
 21
-10.48627337034808
 31
0.0
  0
LINE
  5
12E58
330
124BD
100
AcDbEntity
  8
0
100
AcDbLine
 10
5.731548711192367
 20
-10.40682015852083
 30
0.0
 11
5.672480673055581
 21
-10.44814470198169
 31
0.0
  0
LINE
  5
12E59
330
124BD
100
AcDbEntity
  8
0
100
AcDbLine
 10
5.470539996957322
 20
-9.675626120501998
 30
0.0
 11
5.415726938412081
 21
-9.715307978678065
 31
0.0
  0
LINE
  5
12E5A
330
124BD
100
AcDbEntity
  8
0
100
AcDbLine
 10
5.523112164966859
 20
-9.635868647680592
 30
0.0
 11
5.470539996957322
 21
-9.675626120501998
 31
0.0
  0
LINE
  5
12E5B
330
124BD
100
AcDbEntity
  8
0
100
AcDbLine
 10
6.121944857363171
 20
-10.05147815649174
 30
0.0
 11
6.071433019035671
 21
-10.10632072172062
 31
0.0
  0
LINE
  5
12E5C
330
124BD
100
AcDbEntity
  8
0
100
AcDbLine
 10
6.018183741121791
 20
-10.16086850113742
 30
0.0
 11
5.963090958304887
 21
-10.21418717272059
 31
0.0
  0
LINE
  5
12E5D
330
124BD
100
AcDbEntity
  8
0
100
AcDbLine
 10
5.906574249736598
 20
-10.26578608360479
 30
0.0
 11
5.848933666147544
 21
-10.31531637462215
 31
0.0
  0
LINE
  5
12E5E
330
124BD
100
AcDbEntity
  8
0
100
AcDbLine
 10
5.848933666147544
 20
-10.31531637462215
 30
0.0
 11
5.790482229056195
 21
-10.36243787762445
 31
0.0
  0
LINE
  5
12E5F
330
124BD
100
AcDbEntity
  8
0
100
AcDbLine
 10
5.963090958304887
 20
-10.21418717272059
 30
0.0
 11
5.906574249736598
 21
-10.26578608360479
 31
0.0
  0
LINE
  5
12E60
330
124BD
100
AcDbEntity
  8
0
100
AcDbLine
 10
6.071433019035671
 20
-10.10632072172062
 30
0.0
 11
6.018183741121791
 21
-10.16086850113742
 31
0.0
  0
LINE
  5
12E61
330
124BD
100
AcDbEntity
  8
0
100
AcDbLine
 10
6.168925925125751
 20
-9.996864153942954
 30
0.0
 11
6.121944857363171
 21
-10.05147815649174
 31
0.0
  0
LINE
  5
12E62
330
124BD
100
AcDbEntity
  8
0
100
AcDbLine
 10
6.374710888162287
 20
-9.656172051013069
 30
0.0
 11
6.349005544112054
 21
-9.717162100428947
 31
0.0
  0
LINE
  5
12E63
330
124BD
100
AcDbEntity
  8
0
100
AcDbLine
 10
6.251749059212002
 20
-9.887543727671594
 30
0.0
 11
6.212191278316414
 21
-9.942330277070915
 31
0.0
  0
LINE
  5
12E64
330
124BD
100
AcDbEntity
  8
0
100
AcDbLine
 10
6.287665279026366
 20
-9.832101556804673
 30
0.0
 11
6.251749059212002
 21
-9.887543727671594
 31
0.0
  0
LINE
  5
12E65
330
124BD
100
AcDbEntity
  8
0
100
AcDbLine
 10
6.349005544112054
 20
-9.717162100428947
 30
0.0
 11
6.320045542377553
 21
-9.775508305814575
 31
0.0
  0
LINE
  5
12E66
330
124BD
100
AcDbEntity
  8
0
100
AcDbLine
 10
6.320045542377553
 20
-9.775508305814575
 30
0.0
 11
6.287665279026366
 21
-9.832101556804673
 31
0.0
  0
LINE
  5
12E67
330
124BD
100
AcDbEntity
  8
0
100
AcDbLine
 10
6.168973720025638
 20
-8.077701325185028
 30
0.0
 11
6.190902894957787
 21
-8.116241359167482
 31
0.0
  0
ARC
  5
12E68
330
124BD
100
AcDbEntity
  8
0
100
AcDbCircle
 10
5.705736804001581
 20
-8.072367625690155
 30
0.0
 40
0.4113500000000001
100
AcDbArc
 50
23.00309416242347
 51
86.54119701189117
  0
LINE
  5
12E69
330
124BD
100
AcDbEntity
  8
0
100
AcDbLine
 10
5.339667580613452
 20
-8.402209053136424
 30
0.0
 11
5.391556629679277
 21
-8.408894752409405
 31
0.0
  0
LINE
  5
12E6A
330
124BD
100
AcDbEntity
  8
0
100
AcDbLine
 10
4.989412045734562
 20
-8.420533654566504
 30
0.0
 11
5.037387511121414
 21
-8.41087572934682
 31
0.0
  0
LINE
  5
12E6B
330
124BD
100
AcDbEntity
  8
0
100
AcDbLine
 10
4.763166400050261
 20
-8.505030281343838
 30
0.0
 11
4.806235261810028
 21
-8.483628330181865
 31
0.0
  0
LINE
  5
12E6C
330
124BD
100
AcDbEntity
  8
0
100
AcDbLine
 10
4.643160179840107
 20
-8.579240282047702
 30
0.0
 11
4.681456257523853
 21
-8.553068739397954
 31
0.0
  0
LINE
  5
12E6D
330
124BD
100
AcDbEntity
  8
0
100
AcDbLine
 10
4.681456257523853
 20
-8.553068739397954
 30
0.0
 11
4.721515864774385
 21
-8.528254578456269
 31
0.0
  0
LINE
  5
12E6E
330
124BD
100
AcDbEntity
  8
0
100
AcDbLine
 10
4.721515864774385
 20
-8.528254578456269
 30
0.0
 11
4.763166400050261
 21
-8.505030281343838
 31
0.0
  0
LINE
  5
12E6F
330
124BD
100
AcDbEntity
  8
0
100
AcDbLine
 10
4.806235261810028
 20
-8.483628330181865
 30
0.0
 11
4.850549848512237
 21
-8.464281207091545
 31
0.0
  0
LINE
  5
12E70
330
124BD
100
AcDbEntity
  8
0
100
AcDbLine
 10
4.850549848512237
 20
-8.464281207091545
 30
0.0
 11
4.895937558615441
 21
-8.447221394194077
 31
0.0
  0
LINE
  5
12E71
330
124BD
100
AcDbEntity
  8
0
100
AcDbLine
 10
4.942247053437636
 20
-8.432636376998654
 30
0.0
 11
4.989412045734562
 21
-8.420533654566504
 31
0.0
  0
LINE
  5
12E72
330
124BD
100
AcDbEntity
  8
0
100
AcDbLine
 10
4.895937558615441
 20
-8.447221394194077
 30
0.0
 11
4.942247053437636
 21
-8.432636376998654
 31
0.0
  0
LINE
  5
12E73
330
124BD
100
AcDbEntity
  8
0
100
AcDbLine
 10
5.185726501973386
 20
-8.396195761454801
 30
0.0
 11
5.236493615871806
 21
-8.395942049577183
 31
0.0
  0
LINE
  5
12E74
330
124BD
100
AcDbEntity
  8
0
100
AcDbLine
 10
5.037387511121414
 20
-8.41087572934682
 30
0.0
 11
5.086128425213379
 21
-8.403625103788844
 31
0.0
  0
LINE
  5
12E75
330
124BD
100
AcDbEntity
  8
0
100
AcDbLine
 10
5.135589763625636
 20
-8.398744280341762
 30
0.0
 11
5.185726501973386
 21
-8.396195761454801
 31
0.0
  0
LINE
  5
12E76
330
124BD
100
AcDbEntity
  8
0
100
AcDbLine
 10
5.086128425213379
 20
-8.403625103788844
 30
0.0
 11
5.135589763625636
 21
-8.398744280341762
 31
0.0
  0
LINE
  5
12E77
330
124BD
100
AcDbEntity
  8
0
100
AcDbLine
 10
5.236493615871806
 20
-8.395942049577183
 30
0.0
 11
5.287846080936086
 21
-8.397945647158113
 31
0.0
  0
LINE
  5
12E78
330
124BD
100
AcDbEntity
  8
0
100
AcDbLine
 10
5.287846080936086
 20
-8.397945647158113
 30
0.0
 11
5.339667580613452
 21
-8.402209053136424
 31
0.0
  0
LINE
  5
12E79
330
124BD
100
AcDbEntity
  8
0
100
AcDbLine
 10
5.814553881890718
 20
-8.648644236667877
 30
0.0
 11
5.840178867334977
 21
-8.690688117583732
 31
0.0
  0
LINE
  5
12E7A
330
124BD
100
AcDbEntity
  8
0
100
AcDbLine
 10
5.785107996856238
 20
-9.387416189185174
 30
0.0
 11
5.749155786915075
 21
-9.430977477050216
 31
0.0
  0
LINE
  5
12E7B
330
124BD
100
AcDbEntity
  8
0
100
AcDbLine
 10
5.621517557682885
 20
-9.555661826798182
 30
0.0
 11
5.573453227379717
 21
-9.595923377333363
 31
0.0
  0
LINE
  5
12E7C
330
124BD
100
AcDbEntity
  8
0
100
AcDbLine
 10
5.667037883555263
 20
-9.514890314286255
 30
0.0
 11
5.621517557682885
 21
-9.555661826798182
 31
0.0
  0
LINE
  5
12E7D
330
124BD
100
AcDbEntity
  8
0
100
AcDbLine
 10
5.709691521223703
 20
-9.473398858227085
 30
0.0
 11
5.667037883555263
 21
-9.514890314286255
 31
0.0
  0
LINE
  5
12E7E
330
124BD
100
AcDbEntity
  8
0
100
AcDbLine
 10
5.749155786915075
 20
-9.430977477050216
 30
0.0
 11
5.709691521223703
 21
-9.473398858227085
 31
0.0
  0
LINE
  5
12E7F
330
124BD
100
AcDbEntity
  8
0
100
AcDbLine
 10
5.9110577134385
 20
-9.093422445428572
 30
0.0
 11
5.901504624615157
 21
-9.146071718076381
 31
0.0
  0
LINE
  5
12E80
330
124BD
100
AcDbEntity
  8
0
100
AcDbLine
 10
5.868665454447107
 20
-9.247793069756184
 30
0.0
 11
5.845185514395389
 21
-9.296033967108627
 31
0.0
  0
LINE
  5
12E81
330
124BD
100
AcDbEntity
  8
0
100
AcDbLine
 10
5.845185514395389
 20
-9.296033967108627
 30
0.0
 11
5.817225467274056
 21
-9.342505013061469
 31
0.0
  0
LINE
  5
12E82
330
124BD
100
AcDbEntity
  8
0
100
AcDbLine
 10
5.817225467274056
 20
-9.342505013061469
 30
0.0
 11
5.785107996856238
 21
-9.387416189185174
 31
0.0
  0
LINE
  5
12E83
330
124BD
100
AcDbEntity
  8
0
100
AcDbLine
 10
5.887418896951825
 20
-9.197686079871886
 30
0.0
 11
5.868665454447107
 21
-9.247793069756184
 31
0.0
  0
LINE
  5
12E84
330
124BD
100
AcDbEntity
  8
0
100
AcDbLine
 10
5.901504624615157
 20
-9.146071718076381
 30
0.0
 11
5.887418896951825
 21
-9.197686079871886
 31
0.0
  0
LINE
  5
12E85
330
124BD
100
AcDbEntity
  8
0
100
AcDbLine
 10
5.840178867334977
 20
-8.690688117583732
 30
0.0
 11
5.862261778874518
 21
-8.735296781813829
 31
0.0
  0
LINE
  5
12E86
330
124BD
100
AcDbEntity
  8
0
100
AcDbLine
 10
5.862261778874518
 20
-8.735296781813829
 30
0.0
 11
5.880742580200347
 21
-8.782215253420414
 31
0.0
  0
LINE
  5
12E87
330
124BD
100
AcDbEntity
  8
0
100
AcDbLine
 10
5.895561235003453
 20
-8.831188556465736
 30
0.0
 11
5.906645200359431
 21
-8.881925467491861
 31
0.0
  0
LINE
  5
12E88
330
124BD
100
AcDbEntity
  8
0
100
AcDbLine
 10
5.880742580200347
 20
-8.782215253420414
 30
0.0
 11
5.895561235003453
 21
-8.831188556465736
 31
0.0
  0
LINE
  5
12E89
330
124BD
100
AcDbEntity
  8
0
100
AcDbLine
 10
5.913871906882306
 20
-8.933989772960089
 30
0.0
 11
5.917106278570694
 21
-8.986909011811533
 31
0.0
  0
LINE
  5
12E8A
330
124BD
100
AcDbEntity
  8
0
100
AcDbLine
 10
5.917106278570694
 20
-8.986909011811533
 30
0.0
 11
5.916213239423218
 21
-9.040210722987328
 31
0.0
  0
LINE
  5
12E8B
330
124BD
100
AcDbEntity
  8
0
100
AcDbLine
 10
5.916213239423218
 20
-9.040210722987328
 30
0.0
 11
5.9110577134385
 21
-9.093422445428572
 31
0.0
  0
LINE
  5
12E8C
330
124BD
100
AcDbEntity
  8
0
100
AcDbLine
 10
5.906645200359431
 20
-8.881925467491861
 30
0.0
 11
5.913871906882306
 21
-8.933989772960089
 31
0.0
  0
LINE
  5
12E8D
330
124BD
100
AcDbEntity
  8
0
100
AcDbLine
 10
5.752917834524089
 20
-8.573270728529848
 30
0.0
 11
5.785446858850756
 21
-8.609420115003999
 31
0.0
  0
LINE
  5
12E8E
330
124BD
100
AcDbEntity
  8
0
100
AcDbLine
 10
5.542901299281572
 20
-8.44551042386535
 30
0.0
 11
5.590332771975308
 21
-8.463910110186009
 31
0.0
  0
LINE
  5
12E8F
330
124BD
100
AcDbEntity
  8
0
100
AcDbLine
 10
5.443040450740966
 20
-8.418205226363948
 30
0.0
 11
5.49364626640593
 21
-8.430342956386962
 31
0.0
  0
LINE
  5
12E90
330
124BD
100
AcDbEntity
  8
0
100
AcDbLine
 10
5.391556629679277
 20
-8.408894752409405
 30
0.0
 11
5.443040450740966
 21
-8.418205226363948
 31
0.0
  0
LINE
  5
12E91
330
124BD
100
AcDbEntity
  8
0
100
AcDbLine
 10
5.49364626640593
 20
-8.430342956386962
 30
0.0
 11
5.542901299281572
 21
-8.44551042386535
 31
0.0
  0
LINE
  5
12E92
330
124BD
100
AcDbEntity
  8
0
100
AcDbLine
 10
5.590332771975308
 20
-8.463910110186009
 30
0.0
 11
5.63546790709454
 21
-8.485744496735843
 31
0.0
  0
LINE
  5
12E93
330
124BD
100
AcDbEntity
  8
0
100
AcDbLine
 10
5.63546790709454
 20
-8.485744496735843
 30
0.0
 11
5.677833927246677
 21
-8.511216064901745
 31
0.0
  0
LINE
  5
12E94
330
124BD
100
AcDbEntity
  8
0
100
AcDbLine
 10
5.717026845219731
 20
-8.540451053183183
 30
0.0
 11
5.752917834524089
 21
-8.573270728529848
 31
0.0
  0
LINE
  5
12E95
330
124BD
100
AcDbEntity
  8
0
100
AcDbLine
 10
5.677833927246677
 20
-8.511216064901745
 30
0.0
 11
5.717026845219731
 21
-8.540451053183183
 31
0.0
  0
LINE
  5
12E96
330
124BD
100
AcDbEntity
  8
0
100
AcDbLine
 10
5.785446858850756
 20
-8.609420115003999
 30
0.0
 11
5.814553881890718
 21
-8.648644236667877
 31
0.0
  0
LINE
  5
12E97
330
124BD
100
AcDbEntity
  8
0
100
AcDbLine
 10
6.108431517203072
 20
-7.968278438681205
 30
0.0
 11
6.129429829378402
 21
-8.008387463855321
 31
0.0
  0
LINE
  5
12E98
330
124BD
100
AcDbEntity
  8
0
100
AcDbLine
 10
6.148764506645754
 20
-8.042595962546894
 30
0.0
 11
6.168973720025638
 21
-8.077701325185028
 31
0.0
  0
LINE
  5
12E99
330
124BD
100
AcDbEntity
  8
0
100
AcDbLine
 10
6.129429829378402
 20
-8.008387463855321
 30
0.0
 11
6.148764506645754
 21
-8.042595962546894
 31
0.0
  0
LINE
  5
12E9A
330
124BD
100
AcDbEntity
  8
0
100
AcDbLine
 10
6.084377795111706
 20
-7.911619927880379
 30
0.0
 11
6.108431517203072
 21
-7.968278438681205
 31
0.0
  0
LINE
  5
12E9B
330
124BD
100
AcDbEntity
  8
0
100
AcDbLine
 10
5.424695480330667
 20
-7.64328055648283
 30
0.0
 11
5.347870242515272
 21
-7.639526257241495
 31
0.0
  0
LINE
  5
12E9C
330
124BD
100
AcDbEntity
  8
0
100
AcDbLine
 10
5.006823194081487
 20
-7.638970248963781
 30
0.0
 11
4.947885109488632
 21
-7.642979358033308
 31
0.0
  0
LINE
  5
12E9D
330
124BD
100
AcDbEntity
  8
0
100
AcDbLine
 10
4.837074104704328
 20
-7.655102504927224
 30
0.0
 11
4.783804583041979
 21
-7.663052346813573
 31
0.0
  0
LINE
  5
12E9E
330
124BD
100
AcDbEntity
  8
0
100
AcDbLine
 10
4.678045997499653
 20
-7.68231807761993
 30
0.0
 11
4.62416033214877
 21
-7.6934697706019
 31
0.0
  0
LINE
  5
12E9F
330
124BD
100
AcDbEntity
  8
0
100
AcDbLine
 10
4.731027980885574
 20
-7.67215157036748
 30
0.0
 11
4.678045997499653
 21
-7.68231807761993
 31
0.0
  0
LINE
  5
12EA0
330
124BD
100
AcDbEntity
  8
0
100
AcDbLine
 10
4.783804583041979
 20
-7.663052346813573
 30
0.0
 11
4.731027980885574
 21
-7.67215157036748
 31
0.0
  0
LINE
  5
12EA1
330
124BD
100
AcDbEntity
  8
0
100
AcDbLine
 10
4.89153484660806
 20
-7.648384142677462
 30
0.0
 11
4.837074104704328
 21
-7.655102504927224
 31
0.0
  0
LINE
  5
12EA2
330
124BD
100
AcDbEntity
  8
0
100
AcDbLine
 10
4.947885109488632
 20
-7.642979358033308
 30
0.0
 11
4.89153484660806
 21
-7.648384142677462
 31
0.0
  0
LINE
  5
12EA3
330
124BD
100
AcDbEntity
  8
0
100
AcDbLine
 10
5.202496720681875
 20
-7.635445240968669
 30
0.0
 11
5.134174352884704
 21
-7.635262200854475
 31
0.0
  0
LINE
  5
12EA4
330
124BD
100
AcDbEntity
  8
0
100
AcDbLine
 10
5.068912191314437
 20
-7.636413257366628
 30
0.0
 11
5.006823194081487
 21
-7.638970248963781
 31
0.0
  0
LINE
  5
12EA5
330
124BD
100
AcDbEntity
  8
0
100
AcDbLine
 10
5.134174352884704
 20
-7.635262200854475
 30
0.0
 11
5.068912191314437
 21
-7.636413257366628
 31
0.0
  0
LINE
  5
12EA6
330
124BD
100
AcDbEntity
  8
0
100
AcDbLine
 10
5.273766336595537
 20
-7.636890539250558
 30
0.0
 11
5.202496720681875
 21
-7.635445240968669
 31
0.0
  0
LINE
  5
12EA7
330
124BD
100
AcDbEntity
  8
0
100
AcDbLine
 10
5.347870242515272
 20
-7.639526257241495
 30
0.0
 11
5.273766336595537
 21
-7.636890539250558
 31
0.0
  0
LINE
  5
12EA8
330
124BD
100
AcDbEntity
  8
0
100
AcDbLine
 10
5.730553895627959
 20
-7.661766926149578
 30
0.0
 11
5.424695480330667
 21
-7.64328055648283
 31
0.0
  0
LINE
  5
12EA9
330
124BD
100
AcDbEntity
  8
0
100
AcDbLine
 10
6.40638545938566
 20
-8.648021954728392
 30
0.0
 11
6.423940176449001
 21
-8.724996684287933
 31
0.0
  0
LINE
  5
12EAA
330
124BD
100
AcDbEntity
  8
0
100
AcDbLine
 10
6.464427004621686
 20
-9.047328888520883
 30
0.0
 11
6.465768257113136
 21
-9.12900829893886
 31
0.0
  0
LINE
  5
12EAB
330
124BD
100
AcDbEntity
  8
0
100
AcDbLine
 10
6.465768257113136
 20
-9.12900829893886
 30
0.0
 11
6.463356667828742
 21
-9.210628960712135
 31
0.0
  0
LINE
  5
12EAC
330
124BD
100
AcDbEntity
  8
0
100
AcDbLine
 10
6.417326598146845
 20
-9.521411684102069
 30
0.0
 11
6.397460376855029
 21
-9.591101216232111
 31
0.0
  0
LINE
  5
12EAD
330
124BD
100
AcDbEntity
  8
0
100
AcDbLine
 10
6.457215583774564
 20
-9.291493524095333
 30
0.0
 11
6.447410797687521
 21
-9.370789652694874
 31
0.0
  0
LINE
  5
12EAE
330
124BD
100
AcDbEntity
  8
0
100
AcDbLine
 10
6.434057121507775
 20
-9.447701866667046
 30
0.0
 11
6.417326598146845
 21
-9.521411684102069
 31
0.0
  0
LINE
  5
12EAF
330
124BD
100
AcDbEntity
  8
0
100
AcDbLine
 10
6.447410797687521
 20
-9.370789652694874
 30
0.0
 11
6.434057121507775
 21
-9.447701866667046
 31
0.0
  0
LINE
  5
12EB0
330
124BD
100
AcDbEntity
  8
0
100
AcDbLine
 10
6.463356667828742
 20
-9.210628960712135
 30
0.0
 11
6.457215583774564
 21
-9.291493524095333
 31
0.0
  0
LINE
  5
12EB1
330
124BD
100
AcDbEntity
  8
0
100
AcDbLine
 10
6.423940176449001
 20
-8.724996684287933
 30
0.0
 11
6.438834680121832
 21
-8.80405014299702
 31
0.0
  0
LINE
  5
12EB2
330
124BD
100
AcDbEntity
  8
0
100
AcDbLine
 10
6.45073974391488
 20
-8.884532991520739
 30
0.0
 11
6.459356827702283
 21
-8.965801613696509
 31
0.0
  0
LINE
  5
12EB3
330
124BD
100
AcDbEntity
  8
0
100
AcDbLine
 10
6.459356827702283
 20
-8.965801613696509
 30
0.0
 11
6.464427004621686
 21
-9.047328888520883
 31
0.0
  0
LINE
  5
12EB4
330
124BD
100
AcDbEntity
  8
0
100
AcDbLine
 10
6.438834680121832
 20
-8.80405014299702
 30
0.0
 11
6.45073974391488
 21
-8.884532991520739
 31
0.0
  0
LINE
  5
12EB5
330
124BD
100
AcDbEntity
  8
0
100
AcDbLine
 10
6.214538693095475
 20
-8.159047393097964
 30
0.0
 11
6.239510211417568
 21
-8.206297387967765
 31
0.0
  0
LINE
  5
12EB6
330
124BD
100
AcDbEntity
  8
0
100
AcDbLine
 10
6.364768403485289
 20
-8.502955115159501
 30
0.0
 11
6.386530433381267
 21
-8.573784009014215
 31
0.0
  0
LINE
  5
12EB7
330
124BD
100
AcDbEntity
  8
0
100
AcDbLine
 10
6.239510211417568
 20
-8.206297387967765
 30
0.0
 11
6.265291236963378
 21
-8.25788720999531
 31
0.0
  0
LINE
  5
12EB8
330
124BD
100
AcDbEntity
  8
0
100
AcDbLine
 10
6.265291236963378
 20
-8.25788720999531
 30
0.0
 11
6.291286679914797
 21
-8.313575152892202
 31
0.0
  0
LINE
  5
12EB9
330
124BD
100
AcDbEntity
  8
0
100
AcDbLine
 10
6.316873413974191
 20
-8.373044073438517
 30
0.0
 11
6.341479278635206
 21
-8.436076807054508
 31
0.0
  0
LINE
  5
12EBA
330
124BD
100
AcDbEntity
  8
0
100
AcDbLine
 10
6.341479278635206
 20
-8.436076807054508
 30
0.0
 11
6.364768403485289
 21
-8.502955115159501
 31
0.0
  0
LINE
  5
12EBB
330
124BD
100
AcDbEntity
  8
0
100
AcDbLine
 10
6.291286679914797
 20
-8.313575152892202
 30
0.0
 11
6.316873413974191
 21
-8.373044073438517
 31
0.0
  0
LINE
  5
12EBC
330
124BD
100
AcDbEntity
  8
0
100
AcDbLine
 10
6.386530433381267
 20
-8.573784009014215
 30
0.0
 11
6.40638545938566
 21
-8.648021954728392
 31
0.0
  0
LINE
  5
12EBD
330
124BD
100
AcDbEntity
  8
0
100
AcDbLine
 10
6.190902894957787
 20
-8.116241359167482
 30
0.0
 11
6.214538693095475
 21
-8.159047393097964
 31
0.0
  0
LWPOLYLINE
  5
12EBE
330
124BD
100
AcDbEntity
  8
0
100
AcDbPolyline
 90
       72
 70
     0
 43
0.0
 10
14.8997774538263
 20
-2.000000000000003
 10
14.89448827956606
 20
-2.016970331145894
 10
14.88616151628158
 20
-2.099043315178668
 10
14.88447673969701
 20
-2.163589852650146
 10
14.88372676847124
 20
-2.229347348069395
 10
14.88316766022483
 20
-2.303102990020855
 10
14.88273967641474
 20
-2.383181160023534
 10
14.88240225136872
 20
-2.466492600390397
 10
14.88211644826858
 20
-2.549859354063439
 10
14.88184400881469
 20
-2.630050700537234
 10
14.88154727259099
 20
-2.703778576352209
 10
14.88118992628566
 20
-2.767654361709263
 10
14.88073746625084
 20
-2.818985386818792
 10
14.88015812057744
 20
-2.858201794888223
 10
14.87944971219044
 20
-2.886275735505742
 10
14.87869324110155
 20
-2.90383304941396
 10
14.87829569294188
 20
-2.909325634016432
 10
14.87765674458356
 20
-2.911847403811683
 10
14.87567232546783
 20
-2.919062193853647
 10
14.87316306157131
 20
-2.927573574861071
 10
14.87016505360661
 20
-2.937143395694268
 10
14.86671281397261
 20
-2.947576329938901
 10
14.86283968467948
 20
-2.958705011580416
 10
14.85857843995371
 20
-2.970380681618109
 10
14.85401306203589
 20
-2.982333211952704
 10
14.84943484491623
 20
-2.993770422168517
 10
14.8451398637174
 20
-3.003889493956484
 10
14.84125467833358
 20
-3.012410596160655
 10
14.83790511399359
 20
-3.019168343712383
 10
14.83527531279354
 20
-3.023994412625359
 10
14.8339387000398
 20
-3.026201294167124
 10
14.83370793325948
 20
-3.026432277396253
 10
14.82890655594681
 20
-3.030807041403438
 10
14.82023253846507
 20
-3.038193328548633
 10
14.8076073472969
 20
-3.048506209038536
 10
14.7912295760929
 20
-3.06165444458776
 10
14.7714663693735
 20
-3.077582582439444
 10
14.74882903088603
 20
-3.096222502387343
 10
14.72405669094563
 20
-3.117325724924281
 10
14.69771033116479
 20
-3.140663199647626
 10
14.66996518226913
 20
-3.166273462313522
 10
14.64087892524552
 20
-3.194275645606941
 10
14.61046778187436
 20
-3.224809391169396
 10
14.57871327497816
 20
-3.258034281430009
 10
14.54556948992432
 20
-3.294128239692312
 10
14.51091757512185
 20
-3.333344447941487
 10
14.47451553866375
 20
-3.376127019686697
 10
14.43650747427554
 20
-3.422676009214016
 10
14.39733465841346
 20
-3.472912404863359
 10
14.35748660571008
 20
-3.526716644011274
 10
14.31745482830646
 20
-3.583988262519961
 10
14.27773725073114
 20
-3.644647006272081
 10
14.23884340854854
 20
-3.708634274958347
 10
14.20141430943147
 20
-3.775711291597509
 10
14.1664047569337
 20
-3.84477560147538
 10
14.1342549179129
 20
-3.914489200217279
 10
14.10485782112279
 20
-3.984285213416646
 10
14.07803873037465
 20
-4.053803023412243
 10
14.05365274861154
 20
-4.122677473003613
 10
14.03157806979091
 20
-4.190539333577459
 10
14.01171067817197
 20
-4.257017248633322
 10
13.99396647032807
 20
-4.32171820129128
 10
13.97827874817642
 20
-4.384181177551481
 10
13.96451056482338
 20
-4.444063793186093
 10
13.95249051620919
 20
-4.50111409037665
 10
13.94204547601615
 20
-4.555087333614982
 10
13.93300620707668
 20
-4.605720078979328
 10
13.92520869780827
 20
-4.652720123672513
 10
13.91849673658196
 20
-4.695750232306532
 10
13.91271283942121
 20
-4.734496066115475
 10
13.90766652448437
 20
-4.769064030670188
 10
13.90412825014828
 20
-4.793564039281061
  0
LINE
  5
12F08
330
124BD
100
AcDbEntity
  8
0
100
AcDbLine
 10
11.48365439092445
 20
-5.211480907924956
 30
0.0
 11
14.11889544196805
 21
-5.211480907924953
 31
0.0
  0
LINE
  5
12F09
330
124BD
100
AcDbEntity
  8
0
100
AcDbLine
 10
11.70152697622403
 20
-4.793564039281063
 30
0.0
 11
13.90412825014828
 21
-4.793564039281061
 31
0.0
  0
LINE
  5
12F0A
330
124BD
100
AcDbEntity
  8
0
100
AcDbLine
 10
15.50700383943993
 20
-2.000000000000003
 30
0.0
 11
14.89977745382631
 21
-2.000000000000003
 31
0.0
  0
LINE
  5
12F0B
330
124BD
100
AcDbEntity
  8
0
100
AcDbLine
 10
17.88721055899287
 20
-0.05000000000001
 30
0.0
 11
17.88721055899287
 21
-1.204381921121095
 31
0.0
  0
ARC
  5
12F0C
330
124BD
100
AcDbEntity
  8
0
100
AcDbCircle
 10
17.83721055899287
 20
-0.0500000000000096
 30
0.0
 40
0.05
100
AcDbArc
 50
0.000000000000007
 51
90.0
  0
ENDBLK
  5
12F0D
330
124BD
100
AcDbEntity
  8
0
100
AcDbBlockEnd
  0
BLOCK
  5
12F0F
330
12F0E
100
AcDbEntity
  8
0
100
AcDbBlockBegin
  2
3316_C
 70
     0
 10
0.0
 20
0.0
 30
0.0
  3
3316_C
  1

  0
LINE
  5
12F10
330
12F0E
100
AcDbEntity
  8
0
100
AcDbLine
 10
-1.5
 20
-19.92061279146069
 30
0.0
 11
-1.5
 21
-0.0499999999999998
 31
0.0
  0
LINE
  5
12F11
330
12F0E
100
AcDbEntity
  8
0
100
AcDbLine
 10
1.5
 20
-19.92061279146074
 30
0.0
 11
1.5
 21
-0.0499999999999998
 31
0.0
  0
LWPOLYLINE
  5
12F12
330
12F0E
100
AcDbEntity
  8
0
100
AcDbPolyline
 90
      248
 70
     0
 43
0.0
 10
-1.275812722036377
 20
-5.211480907924955
 10
-1.274761877675217
 20
-5.259398206447913
 10
-1.273613029892345
 20
-5.278614584194461
 10
-1.271669244781037
 20
-5.299082423548159
 10
-1.268897853683974
 20
-5.320464372817657
 10
-1.265266187943808
 20
-5.342423080311605
 10
-1.260741578903207
 20
-5.364621194338661
 10
-1.255291357904837
 20
-5.386721363207468
 10
-1.248908265247081
 20
-5.408413441279788
 10
-1.241686677051106
 20
-5.429496107129765
 10
-1.23374637839381
 20
-5.44979524538465
 10
-1.225207154352077
 20
-5.469136740671687
 10
-1.216188790002782
 20
-5.487346477618129
 10
-1.20681107042283
 20
-5.504250340851231
 10
-1.197193780689104
 20
-5.519674214998237
 10
-1.187456705878496
 20
-5.533443984686392
 10
-1.177708741040952
 20
-5.545441759263661
 10
-1.168015221118679
 20
-5.555774546960845
 10
-1.158430591026977
 20
-5.564605580729447
 10
-1.149009295681103
 20
-5.572098093520993
 10
-1.139805779996351
 20
-5.578415318286983
 10
-1.130874488887997
 20
-5.583720487978937
 10
-1.122269867271327
 20
-5.588176835548355
 10
-1.114046360061607
 20
-5.591947593946756
 10
-1.106251153895968
 20
-5.595183300528714
 10
-1.098902402298882
 20
-5.597983710261083
 10
-1.092011000516706
 20
-5.600435882513786
 10
-1.085587843795735
 20
-5.602626876656725
 10
-1.079643827382327
 20
-5.604643752059835
 10
-1.074189846522784
 20
-5.606573568093023
 10
-1.069236796463457
 20
-5.608503384126213
 10
-1.06479557245067
 20
-5.610520259529324
 10
-1.0608353250229
 20
-5.612713067128546
 10
-1.057158225887278
 20
-5.61517793357522
 10
-1.053524702043084
 20
-5.618012798976962
 10
-1.049695180489599
 20
-5.621315603441382
 10
-1.045430088226112
 20
-5.625184287076106
 10
-1.040489852251909
 20
-5.629716789988738
 10
-1.034634899566263
 20
-5.63501105228689
 10
-1.027625657168464
 20
-5.641165014078191
 10
-1.019278814745419
 20
-5.64822945887272
 10
-1.009636112734554
 20
-5.656066543790479
 10
-0.998795554260937
 20
-5.664491269353923
 10
-0.9868551424496132
 20
-5.67331863608553
 10
-0.9739128804256509
 20
-5.682363644507753
 10
-0.9600667713141035
 20
-5.691441295143074
 10
-0.9454148182400174
 20
-5.700366588513944
 10
-0.9300550243284675
 20
-5.708954525142844
 10
-0.9140890239787893
 20
-5.717060007763445
 10
-0.8976329766874684
 20
-5.724697547954282
 10
-0.8808066732252726
 20
-5.731921559505091
 10
-0.8637299043629766
 20
-5.738786456205612
 10
-0.8465224608713484
 20
-5.745346651845596
 10
-0.8293041335211626
 20
-5.751656560214784
 10
-0.812194713083187
 20
-5.75777059510291
 10
-0.7953139903281894
 20
-5.763743170299716
 10
-0.7787545307223596
 20
-5.769625071279439
 10
-0.7624999985135688
 20
-5.775452570254219
 10
-0.7465068326450961
 20
-5.781258311120686
 10
-0.7307314720602136
 20
-5.787074937775487
 10
-0.7151303557022004
 20
-5.792935094115244
 10
-0.6996599225143428
 20
-5.798871424036591
 10
-0.6842766114399268
 20
-5.804916571436165
 10
-0.6689368614222247
 20
-5.811103180210603
 10
-0.6536116308077738
 20
-5.817489287133937
 10
-0.6383299555561593
 20
-5.824234500489837
 10
-0.6231353910302105
 20
-5.831523821439383
 10
-0.6080714925927709
 20
-5.839542251143652
 10
-0.5931818156066698
 20
-5.848474790763719
 10
-0.5785099154347506
 20
-5.858506441460661
 10
-0.5640993474398357
 20
-5.869822204395551
 10
-0.5499936669847756
 20
-5.882607080729472
 10
-0.5362600248861682
 20
-5.896989846341605
 10
-0.523059953775686
 20
-5.912874375983569
 10
-0.5105785817387556
 20
-5.930108319125094
 10
-0.4990010368608253
 20
-5.94853932523591
 10
-0.4885124472273361
 20
-5.968015043785745
 10
-0.4792979409237077
 20
-5.988383124244323
 10
-0.4715426460353882
 20
-6.009491216081376
 10
-0.4654316906478045
 20
-6.031186968766637
 10
-0.4611009583448365
 20
-6.053309421289719
 10
-0.4584893547041134
 20
-6.075663170719804
 10
-0.457486540801682
 20
-6.098044203645957
 10
-0.4579821777135891
 20
-6.120248506657252
 10
-0.4598659265159029
 20
-6.14207206634276
 10
-0.4630274482846773
 20
-6.163310869291543
 10
-0.4673564040959591
 20
-6.183760902092681
 10
-0.4727424550258235
 20
-6.203218151335236
 10
-0.4790688617506121
 20
-6.221528621667531
 10
-0.4861932833479372
 20
-6.238738389974929
 10
-0.4939669784957062
 20
-6.254943551202026
 10
-0.5022412058718331
 20
-6.270240200293438
 10
-0.510867224154211
 20
-6.284724432193766
 10
-0.5196962920207469
 20
-6.298492341847617
 10
-0.5285796681493622
 20
-6.311640024199612
 10
-0.5373686112179428
 20
-6.324263574194341
 10
-0.5459380508021568
 20
-6.336447352201891
 10
-0.5542576000685031
 20
-6.348228780294204
 10
-0.5623205430812562
 20
-6.359633545968692
 10
-0.5701201639046616
 20
-6.370687336722764
 10
-0.5776497466029867
 20
-6.381415840053844
 10
-0.5849025752404913
 20
-6.391844743459334
 10
-0.5918719338814143
 20
-6.401999734436651
 10
-0.5985511065900369
 20
-6.411906500483202
 10
-0.6049329503893191
 20
-6.42159262925515
 10
-0.6110086141371767
 20
-6.431093309043608
 10
-0.6167688196502184
 20
-6.440445628298442
 10
-0.6222042887450812
 20
-6.449686675469524
 10
-0.6273057432383809
 20
-6.458853539006706
 10
-0.6320639049467474
 20
-6.467983307359848
 10
-0.6364694956867894
 20
-6.477113068978819
 10
-0.6405132372751439
 20
-6.486279912313485
 10
-0.6441935833479136
 20
-6.495493110037489
 10
-0.6475399148191201
 20
-6.504650671719612
 10
-0.6505893444222722
 20
-6.513622791152426
 10
-0.6533789848908782
 20
-6.52227966212849
 10
-0.655945948958447
 20
-6.530491478440375
 10
-0.6583273493584798
 20
-6.53812843388065
 10
-0.6605602988244926
 20
-6.545060722241873
 10
-0.6626819100899724
 20
-6.551158537316621
 10
-0.6648019745170757
 20
-6.556394064170443
 10
-0.6673209979824435
 20
-6.561147452960855
 10
-0.6707121649913291
 20
-6.565900845118354
 10
-0.675448660049014
 20
-6.571136382073436
 10
-0.6820036676607799
 20
-6.577336205256609
 10
-0.6908503723318802
 20
-6.584982456098361
 10
-0.7024619585675965
 20
-6.594557276029205
 10
-0.717311610873189
 20
-6.606542806479633
 10
-0.735697776057144
 20
-6.62130528929816
 10
-0.7572199501407795
 20
-6.638747368005383
 10
-0.7813028914486253
 20
-6.658655786539896
 10
-0.807371358305204
 20
-6.680817288840304
 10
-0.8348501090350453
 20
-6.70501861884522
 10
-0.8631639019626717
 20
-6.731046520493241
 10
-0.8917374954126131
 20
-6.758687737722968
 10
-0.9199956477093991
 20
-6.787729014473009
 10
-0.9474558971133504
 20
-6.81796945749859
 10
-0.9740069016280443
 20
-6.849257624821421
 10
-0.999630099192835
 20
-6.881454437279832
 10
-1.024306927747076
 20
-6.914420815712147
 10
-1.048018825230144
 20
-6.948017680956701
 10
-1.070747229581392
 20
-6.982105953851822
 10
-1.09247357874019
 20
-7.016546555235842
 10
-1.11317931064589
 20
-7.051200405947084
 10
-1.132831947860765
 20
-7.085917609780223
 10
-1.151343351438654
 20
-7.120505002355307
 10
-1.16861146705628
 20
-7.154758602248711
 10
-1.184534240390412
 20
-7.188474428036816
 10
-1.199009617117766
 20
-7.22144849829602
 10
-1.211935542915099
 20
-7.253476831602699
 10
-1.22320996345914
 20
-7.284355446533225
 10
-1.232730824426624
 20
-7.313880361664
 10
-1.240440914623825
 20
-7.341972766424075
 10
-1.246462395375047
 20
-7.369054533653218
 10
-1.250962271134142
 20
-7.395672707043877
 10
-1.254107546354951
 20
-7.422374330288502
 10
-1.256065225491298
 20
-7.449706447079528
 10
-1.25700231299703
 20
-7.478216101109407
 10
-1.257085813326
 20
-7.508450336070588
 10
-1.25648273093202
 20
-7.540956195655511
 10
-1.255275021203651
 20
-7.576163279324039
 10
-1.253204443268188
 20
-7.6140314096057
 10
-1.24992770718763
 20
-7.654402964797429
 10
-1.245101523023983
 20
-7.697120323196176
 10
-1.238382600839251
 20
-7.742025863098874
 10
-1.229427650695427
 20
-7.78896196280247
 10
-1.217893382654537
 20
-7.837771000603898
 10
-1.203436506778558
 20
-7.888295354800111
 10
-1.185821977653255
 20
-7.940318680870267
 10
-1.165247727959368
 20
-7.993389743022482
 10
-1.142019934901384
 20
-8.04699858264707
 10
-1.116444775683795
 20
-8.100635241134373
 10
-1.088828427511103
 20
-8.153789759874719
 10
-1.059477067587778
 20
-8.205952180258435
 10
-1.028696873118327
 20
-8.25661254367586
 10
-0.9967940213072381
 20
-8.305260891517317
 10
-0.9640601661598253
 20
-8.351504649078776
 10
-0.9307288688846639
 20
-8.395420777278712
 10
-0.8970191674911447
 20
-8.437203620941247
 10
-0.8631500999886867
 20
-8.477047524890487
 10
-0.8293407043866807
 20
-8.515146833950559
 10
-0.7958100186945245
 20
-8.551695892945573
 10
-0.7627770809216301
 20
-8.586889046699642
 10
-0.7304609290773812
 20
-8.620920640036882
 10
-0.6990394310711139
 20
-8.653983191979143
 10
-0.6685257744117905
 20
-8.686261918339223
 10
-0.6388919765083046
 20
-8.71794020912765
 10
-0.610110054769578
 20
-8.749201454354956
 10
-0.5821520266044758
 20
-8.780229044031667
 10
-0.55498990942192
 20
-8.811206368168317
 10
-0.5285957206307899
 20
-8.842316816775436
 10
-0.502941477639979
 20
-8.873743779863556
 10
-0.4780266058417482
 20
-8.905649139060429
 10
-0.4539601625617209
 20
-8.938108742462688
 10
-0.430878613108888
 20
-8.971176929784174
 10
-0.408918422792226
 20
-9.004908040738765
 10
-0.3882160569207258
 20
-9.039356415040302
 10
-0.3689079808033711
 20
-9.074576392402647
 10
-0.3511306597491384
 20
-9.110622312539643
 10
-0.3350205590670185
 20
-9.147548515165158
 10
-0.3206635648232208
 20
-9.185365513162754
 10
-0.3079432461127851
 20
-9.223908512094901
 10
-0.2966925927879984
 20
-9.262968890693773
 10
-0.2867445947011404
 20
-9.302338027691554
 10
-0.2779322417044909
 20
-9.341807301820416
 10
-0.2700885236503154
 20
-9.381168091812558
 10
-0.2630464303909008
 20
-9.42021177640013
 10
-0.2566389517785268
 20
-9.458729734315337
 10
-0.2507040313442133
 20
-9.496517628065227
 10
-0.2450994273340541
 20
-9.533388255256411
 10
-0.2396878516728549
 20
-9.569158697270349
 10
-0.2343320162854781
 20
-9.60364603548853
 10
-0.228894633096715
 20
-9.636667351292434
 10
-0.2232384140314352
 20
-9.66803972606354
 10
-0.2172260710144513
 20
-9.697580241183317
 10
-0.2107203159705904
 20
-9.725105978033251
 10
-0.2036143843113649
 20
-9.750487566443517
 10
-0.1959236053949738
 20
-9.77380983003908
 10
-0.1876938320663157
 20
-9.795211140893584
 10
-0.178970917170254
 20
-9.814829871080689
 10
-0.1698007135516732
 20
-9.832804392674063
 10
-0.160229074055465
 20
-9.849273077747344
 10
-0.1503018515264998
 20
-9.864374298374205
 10
-0.1400648988096549
 20
-9.878246426628294
 10
-0.1295664540125756
 20
-9.891006799837217
 10
-0.1188642962938928
 20
-9.902688616344409
 10
-0.108018590074991
 20
-9.913304039747245
 10
-0.0970894997772547
 20
-9.922865233643108
 10
-0.0861371898220682
 20
-9.931384361629373
 10
-0.0752218246308303
 20
-9.938873587303419
 10
-0.0644035686249112
 20
-9.945345074262633
 10
-0.0537425862257095
 20
-9.950810986104389
 10
-0.0432835136849619
 20
-9.955295202060735
 10
-0.0330088745758488
 20
-9.958868463902444
 10
-0.0228856643019029
 20
-9.961613229034927
 10
-0.0128808782666496
 20
-9.963611954863608
 10
-0.0029615118736359
 20
-9.964947098793931
 10
0.0069054394736128
 20
-9.965701118231322
 10
0.0167529803715709
 20
-9.9659564705812
 10
0.0266141154166846
 20
-9.965795613249007
 10
0.0365852729007159
 20
-9.965221453713297
 10
0.0470165758964996
 20
-9.963918699745217
 10
0.058321571172165
 20
-9.961492509189046
 10
0.0709138054958274
 20
-9.957548039889076
 10
0.085206825635602
 20
-9.951690449689575
 10
0.1016141783596254
 20
-9.94352489643483
 10
0.1205494104360056
 20
-9.932656537969119
 10
0.1424260686328651
 20
-9.918690532136729
  0
LWPOLYLINE
  5
1300C
330
12F0E
100
AcDbEntity
  8
0
100
AcDbPolyline
 90
      248
 70
     0
 43
0.0
 10
1.275812722036377
 20
-5.211480907924955
 10
1.274761877675224
 20
-5.259398206447913
 10
1.273613029892345
 20
-5.278614584194461
 10
1.271669244781051
 20
-5.299082423548159
 10
1.268897853683981
 20
-5.320464372817657
 10
1.265266187943815
 20
-5.342423080311605
 10
1.260741578903214
 20
-5.364621194338661
 10
1.255291357904852
 20
-5.386721363207468
 10
1.248908265247088
 20
-5.408413441279788
 10
1.241686677051113
 20
-5.429496107129765
 10
1.233746378393817
 20
-5.44979524538465
 10
1.225207154352077
 20
-5.469136740671687
 10
1.216188790002789
 20
-5.487346477618129
 10
1.206811070422837
 20
-5.504250340851231
 10
1.197193780689119
 20
-5.519674214998237
 10
1.187456705878503
 20
-5.533443984686392
 10
1.177708741040959
 20
-5.545441759263661
 10
1.168015221118686
 20
-5.555774546960845
 10
1.158430591026984
 20
-5.564605580729447
 10
1.149009295681111
 20
-5.572098093520993
 10
1.139805779996358
 20
-5.578415318286983
 10
1.130874488888011
 20
-5.583720487978937
 10
1.122269867271327
 20
-5.588176835548355
 10
1.114046360061614
 20
-5.591947593946756
 10
1.106251153895968
 20
-5.595183300528714
 10
1.09890240229889
 20
-5.597983710261083
 10
1.092011000516706
 20
-5.600435882513786
 10
1.085587843795742
 20
-5.602626876656725
 10
1.079643827382327
 20
-5.604643752059835
 10
1.074189846522791
 20
-5.606573568093023
 10
1.069236796463471
 20
-5.608503384126213
 10
1.064795572450677
 20
-5.610520259529324
 10
1.060835325022907
 20
-5.612713067128546
 10
1.057158225887285
 20
-5.61517793357522
 10
1.053524702043091
 20
-5.618012798976962
 10
1.049695180489607
 20
-5.621315603441382
 10
1.045430088226119
 20
-5.625184287076106
 10
1.040489852251916
 20
-5.629716789988738
 10
1.03463489956627
 20
-5.63501105228689
 10
1.027625657168471
 20
-5.641165014078191
 10
1.019278814745419
 20
-5.64822945887272
 10
1.009636112734568
 20
-5.656066543790479
 10
0.9987955542609441
 20
-5.664491269353923
 10
0.9868551424496274
 20
-5.67331863608553
 10
0.973912880425658
 20
-5.682363644507753
 10
0.9600667713141106
 20
-5.691441295143074
 10
0.9454148182400246
 20
-5.700366588513944
 10
0.9300550243284746
 20
-5.708954525142844
 10
0.9140890239787964
 20
-5.717060007763445
 10
0.8976329766874755
 20
-5.724697547954282
 10
0.8808066732252797
 20
-5.731921559505091
 10
0.8637299043629838
 20
-5.738786456205612
 10
0.8465224608713555
 20
-5.745346651845596
 10
0.8293041335211697
 20
-5.751656560214784
 10
0.812194713083187
 20
-5.75777059510291
 10
0.7953139903281965
 20
-5.763743170299716
 10
0.7787545307223667
 20
-5.769625071279439
 10
0.7624999985135759
 20
-5.775452570254219
 10
0.7465068326451032
 20
-5.781258311120686
 10
0.7307314720602207
 20
-5.787074937775487
 10
0.7151303557022075
 20
-5.792935094115244
 10
0.699659922514357
 20
-5.798871424036591
 10
0.6842766114399339
 20
-5.804916571436165
 10
0.6689368614222318
 20
-5.811103180210603
 10
0.6536116308077809
 20
-5.817489287133937
 10
0.6383299555561664
 20
-5.824234500489837
 10
0.6231353910302176
 20
-5.831523821439383
 10
0.6080714925927709
 20
-5.839542251143652
 10
0.5931818156066769
 20
-5.848474790763719
 10
0.5785099154347506
 20
-5.858506441460661
 10
0.5640993474398428
 20
-5.869822204395551
 10
0.5499936669847827
 20
-5.882607080729472
 10
0.5362600248861753
 20
-5.896989846341605
 10
0.5230599537756931
 20
-5.912874375983569
 10
0.5105785817387698
 20
-5.930108319125094
 10
0.4990010368608325
 20
-5.94853932523591
 10
0.4885124472273361
 20
-5.968015043785745
 10
0.4792979409237148
 20
-5.988383124244323
 10
0.4715426460353882
 20
-6.009491216081376
 10
0.4654316906478116
 20
-6.031186968766637
 10
0.4611009583448436
 20
-6.053309421289719
 10
0.4584893547041205
 20
-6.075663170719804
 10
0.457486540801682
 20
-6.098044203645957
 10
0.4579821777135891
 20
-6.120248506657252
 10
0.45986592651591
 20
-6.14207206634276
 10
0.4630274482846773
 20
-6.163310869291543
 10
0.4673564040959662
 20
-6.183760902092681
 10
0.4727424550258235
 20
-6.203218151335236
 10
0.4790688617506192
 20
-6.221528621667531
 10
0.4861932833479444
 20
-6.238738389974929
 10
0.4939669784957133
 20
-6.254943551202026
 10
0.5022412058718402
 20
-6.270240200293438
 10
0.510867224154211
 20
-6.284724432193766
 10
0.519696292020754
 20
-6.298492341847617
 10
0.5285796681493622
 20
-6.311640024199612
 10
0.537368611217957
 20
-6.324263574194341
 10
0.5459380508021639
 20
-6.336447352201891
 10
0.5542576000685103
 20
-6.348228780294204
 10
0.5623205430812633
 20
-6.359633545968692
 10
0.5701201639046687
 20
-6.370687336722764
 10
0.5776497466029938
 20
-6.381415840053844
 10
0.5849025752404984
 20
-6.391844743459334
 10
0.5918719338814214
 20
-6.401999734436651
 10
0.598551106590044
 20
-6.411906500483202
 10
0.6049329503893262
 20
-6.42159262925515
 10
0.6110086141371838
 20
-6.431093309043608
 10
0.6167688196502255
 20
-6.440445628298442
 10
0.6222042887450883
 20
-6.449686675469524
 10
0.6273057432383951
 20
-6.458853539006706
 10
0.6320639049467545
 20
-6.467983307359848
 10
0.6364694956867965
 20
-6.477113068978819
 10
0.640513237275151
 20
-6.486279912313485
 10
0.6441935833479207
 20
-6.495493110037489
 10
0.6475399148191272
 20
-6.504650671719612
 10
0.6505893444222793
 20
-6.513622791152426
 10
0.6533789848908925
 20
-6.52227966212849
 10
0.6559459489584541
 20
-6.530491478440375
 10
0.658327349358487
 20
-6.53812843388065
 10
0.6605602988244926
 20
-6.545060722241873
 10
0.6626819100899795
 20
-6.551158537316621
 10
0.6648019745170828
 20
-6.556394064170443
 10
0.6673209979824435
 20
-6.561147452960855
 10
0.6707121649913362
 20
-6.565900845118354
 10
0.6754486600490282
 20
-6.571136382073436
 10
0.6820036676607871
 20
-6.577336205256609
 10
0.6908503723318944
 20
-6.584982456098361
 10
0.7024619585675965
 20
-6.594557276029205
 10
0.7173116108731961
 20
-6.606542806479633
 10
0.7356977760571511
 20
-6.62130528929816
 10
0.7572199501407866
 20
-6.638747368005383
 10
0.7813028914486324
 20
-6.658655786539896
 10
0.8073713583052111
 20
-6.680817288840304
 10
0.8348501090350453
 20
-6.70501861884522
 10
0.8631639019626788
 20
-6.731046520493241
 10
0.8917374954126131
 20
-6.758687737722968
 10
0.9199956477093991
 20
-6.787729014473009
 10
0.9474558971133575
 20
-6.81796945749859
 10
0.9740069016280514
 20
-6.849257624821421
 10
0.9996300991928421
 20
-6.881454437279832
 10
1.024306927747083
 20
-6.914420815712147
 10
1.048018825230151
 20
-6.948017680956701
 10
1.0707472295814
 20
-6.982105953851822
 10
1.092473578740197
 20
-7.016546555235842
 10
1.113179310645904
 20
-7.051200405947084
 10
1.132831947860772
 20
-7.085917609780223
 10
1.151343351438661
 20
-7.120505002355307
 10
1.168611467056294
 20
-7.154758602248711
 10
1.184534240390419
 20
-7.188474428036816
 10
1.199009617117781
 20
-7.22144849829602
 10
1.211935542915099
 20
-7.253476831602699
 10
1.223209963459147
 20
-7.284355446533225
 10
1.232730824426631
 20
-7.313880361664
 10
1.240440914623832
 20
-7.341972766424075
 10
1.246462395375054
 20
-7.369054533653218
 10
1.250962271134149
 20
-7.395672707043877
 10
1.254107546354958
 20
-7.422374330288502
 10
1.256065225491305
 20
-7.449706447079528
 10
1.257002312997038
 20
-7.478216101109407
 10
1.257085813326007
 20
-7.508450336070588
 10
1.256482730932027
 20
-7.540956195655511
 10
1.255275021203658
 20
-7.576163279324039
 10
1.253204443268188
 20
-7.6140314096057
 10
1.249927707187637
 20
-7.654402964797429
 10
1.24510152302399
 20
-7.697120323196176
 10
1.238382600839258
 20
-7.742025863098874
 10
1.229427650695434
 20
-7.78896196280247
 10
1.217893382654537
 20
-7.837771000603898
 10
1.203436506778565
 20
-7.888295354800111
 10
1.185821977653262
 20
-7.940318680870267
 10
1.165247727959375
 20
-7.993389743022482
 10
1.142019934901391
 20
-8.04699858264707
 10
1.116444775683802
 20
-8.100635241134373
 10
1.088828427511103
 20
-8.153789759874719
 10
1.059477067587785
 20
-8.205952180258435
 10
1.028696873118335
 20
-8.25661254367586
 10
0.9967940213072452
 20
-8.305260891517317
 10
0.9640601661598324
 20
-8.351504649078776
 10
0.9307288688846711
 20
-8.395420777278712
 10
0.8970191674911518
 20
-8.437203620941247
 10
0.8631500999886938
 20
-8.477047524890487
 10
0.8293407043866878
 20
-8.515146833950559
 10
0.7958100186945388
 20
-8.551695892945573
 10
0.7627770809216372
 20
-8.586889046699642
 10
0.7304609290773883
 20
-8.620920640036882
 10
0.6990394310711139
 20
-8.653983191979143
 10
0.6685257744117905
 20
-8.686261918339223
 10
0.6388919765083117
 20
-8.71794020912765
 10
0.610110054769578
 20
-8.749201454354956
 10
0.5821520266044829
 20
-8.780229044031667
 10
0.5549899094219271
 20
-8.811206368168317
 10
0.5285957206307899
 20
-8.842316816775436
 10
0.5029414776399861
 20
-8.873743779863556
 10
0.4780266058417553
 20
-8.905649139060429
 10
0.453960162561728
 20
-8.938108742462688
 10
0.4308786131088951
 20
-8.971176929784174
 10
0.4089184227922332
 20
-9.004908040738765
 10
0.3882160569207258
 20
-9.039356415040302
 10
0.3689079808033782
 20
-9.074576392402647
 10
0.3511306597491455
 20
-9.110622312539643
 10
0.3350205590670328
 20
-9.147548515165158
 10
0.3206635648232208
 20
-9.185365513162754
 10
0.3079432461127922
 20
-9.223908512094901
 10
0.2966925927880055
 20
-9.262968890693773
 10
0.2867445947011475
 20
-9.302338027691554
 10
0.277932241704498
 20
-9.341807301820416
 10
0.2700885236503296
 20
-9.381168091812558
 10
0.2630464303909079
 20
-9.42021177640013
 10
0.2566389517785339
 20
-9.458729734315337
 10
0.2507040313442275
 20
-9.496517628065227
 10
0.2450994273340612
 20
-9.533388255256411
 10
0.239687851672862
 20
-9.569158697270349
 10
0.2343320162854781
 20
-9.60364603548853
 10
0.2288946330967292
 20
-9.636667351292434
 10
0.2232384140314423
 20
-9.66803972606354
 10
0.2172260710144513
 20
-9.697580241183317
 10
0.2107203159705975
 20
-9.725105978033251
 10
0.2036143843113649
 20
-9.750487566443517
 10
0.1959236053949809
 20
-9.77380983003908
 10
0.1876938320663157
 20
-9.795211140893584
 10
0.1789709171702611
 20
-9.814829871080689
 10
0.1698007135516804
 20
-9.832804392674063
 10
0.1602290740554721
 20
-9.849273077747344
 10
0.1503018515265069
 20
-9.864374298374205
 10
0.140064898809662
 20
-9.878246426628294
 10
0.1295664540125898
 20
-9.891006799837217
 10
0.1188642962938999
 20
-9.902688616344409
 10
0.1080185900749981
 20
-9.913304039747245
 10
0.0970894997772689
 20
-9.922865233643108
 10
0.0861371898220753
 20
-9.931384361629373
 10
0.0752218246308374
 20
-9.938873587303419
 10
0.0644035686249183
 20
-9.945345074262633
 10
0.0537425862257166
 20
-9.950810986104389
 10
0.043283513684969
 20
-9.955295202060735
 10
0.0330088745758559
 20
-9.958868463902444
 10
0.02288566430191
 20
-9.961613229034927
 10
0.0128808782666568
 20
-9.963611954863608
 10
0.002961511873643
 20
-9.964947098793931
 10
-0.0069054394736057
 20
-9.965701118231322
 10
-0.0167529803715638
 20
-9.9659564705812
 10
-0.0266141154166775
 20
-9.965795613249007
 10
-0.0365852729007088
 20
-9.965221453713297
 10
-0.0470165758964925
 20
-9.963918699745217
 10
-0.0583215711721579
 20
-9.961492509189046
 10
-0.0709138054958203
 20
-9.957548039889076
 10
-0.0852068256355949
 20
-9.951690449689575
 10
-0.1016141783596183
 20
-9.94352489643483
 10
-0.1205494104359985
 20
-9.932656537969119
 10
-0.142426068632858
 20
-9.918690532136729
  0
LINE
  5
13106
330
12F0E
100
AcDbEntity
  8
0
100
AcDbLine
 10
-0.5
 20
-18.30751947399604
 30
0.0
 11
-0.4999999999999858
 21
-8.877510562266984
 31
0.0
  0
LINE
  5
13107
330
12F0E
100
AcDbEntity
  8
0
100
AcDbLine
 10
0.5
 20
-18.30751947399604
 30
0.0
 11
0.5000000000000142
 21
-8.877510562266984
 31
0.0
  0
LINE
  5
13108
330
12F0E
100
AcDbEntity
  8
0
100
AcDbLine
 10
1.450000000000002
 20
-19.97061279146073
 30
0.0
 11
-1.449999999999995
 21
-19.97061279146069
 31
0.0
  0
LINE
  5
13109
330
12F0E
100
AcDbEntity
  8
0
100
AcDbLine
 10
-1.5
 20
-18.30751947399604
 30
0.0
 11
1.5
 21
-18.30751947399604
 31
0.0
  0
LINE
  5
1310A
330
12F0E
100
AcDbEntity
  8
0
100
AcDbLine
 10
-1.5
 20
-15.60744743093311
 30
0.0
 11
1.5
 21
-15.60744743093311
 31
0.0
  0
ARC
  5
1310B
330
12F0E
100
AcDbEntity
  8
0
100
AcDbCircle
 10
-1.449999999999995
 20
-19.92061279146069
 30
0.0
 40
0.05
100
AcDbArc
 50
180.0
 51
269.9999999999993
  0
ARC
  5
1310C
330
12F0E
100
AcDbEntity
  8
0
100
AcDbCircle
 10
1.450000000000002
 20
-19.92061279146074
 30
0.0
 40
0.05
100
AcDbArc
 50
269.9999999999992
 51
0.0
  0
LINE
  5
1310D
330
12F0E
100
AcDbEntity
  8
0
100
AcDbLine
 10
-0.4999999999999929
 20
-6.266096859990502
 30
0.0
 11
-0.4999999999999929
 21
-5.946949014343863
 31
0.0
  0
LINE
  5
1310E
330
12F0E
100
AcDbEntity
  8
0
100
AcDbLine
 10
0.5000000000000071
 20
-6.266096859990512
 30
0.0
 11
0.5000000000000142
 21
-5.946949014343856
 31
0.0
  0
LINE
  5
1310F
330
12F0E
100
AcDbEntity
  8
0
100
AcDbLine
 10
1.450000000000002
 20
-0.0000000000000009
 30
0.0
 11
-1.449999999999995
 21
0.0000000000000009
 31
0.0
  0
LINE
  5
13110
330
12F0E
100
AcDbEntity
  8
0
100
AcDbLine
 10
-1.5
 20
-1.204381921121096
 30
0.0
 11
1.500000000000007
 21
-1.204381921121096
 31
0.0
  0
LINE
  5
13111
330
12F0E
100
AcDbEntity
  8
0
100
AcDbLine
 10
-1.5
 20
-1.997455844295031
 30
0.0
 11
1.500000000000007
 21
-1.997455844295031
 31
0.0
  0
LINE
  5
13112
330
12F0E
100
AcDbEntity
  8
0
100
AcDbLine
 10
-1.275812722036377
 20
-4.793564039281064
 30
0.0
 11
1.275812722036391
 21
-4.793564039281061
 31
0.0
  0
LINE
  5
13113
330
12F0E
100
AcDbEntity
  8
0
100
AcDbLine
 10
-1.275812722036377
 20
-5.211480907924957
 30
0.0
 11
1.275812722036391
 21
-5.211480907924953
 31
0.0
  0
LINE
  5
13114
330
12F0E
100
AcDbEntity
  8
0
100
AcDbLine
 10
-0.4999999999999858
 20
-4.793564039281062
 30
0.0
 11
-0.4999999999999929
 21
-1.997455844295031
 31
0.0
  0
LINE
  5
13115
330
12F0E
100
AcDbEntity
  8
0
100
AcDbLine
 10
0.5000000000000142
 20
-4.793564039281061
 30
0.0
 11
0.5000000000000071
 21
-1.997455844295031
 31
0.0
  0
ARC
  5
13116
330
12F0E
100
AcDbEntity
  8
0
100
AcDbCircle
 10
-1.275812722036377
 20
-5.002522473603009
 30
0.0
 40
0.2089584343219464
100
AcDbArc
 50
90.0
 51
270.0
  0
ARC
  5
13117
330
12F0E
100
AcDbEntity
  8
0
100
AcDbCircle
 10
-1.449999999999995
 20
-0.0499999999999998
 30
0.0
 40
0.05
100
AcDbArc
 50
90.0
 51
180.0
  0
ARC
  5
13118
330
12F0E
100
AcDbEntity
  8
0
100
AcDbCircle
 10
1.275812722036391
 20
-5.002522473603009
 30
0.0
 40
0.2089584343219464
100
AcDbArc
 50
270.0
 51
90.0
  0
ARC
  5
13119
330
12F0E
100
AcDbEntity
  8
0
100
AcDbCircle
 10
1.450000000000002
 20
-0.0499999999999998
 30
0.0
 40
0.05
100
AcDbArc
 50
0.0
 51
89.99999999999998
  0
ENDBLK
  5
1311A
330
12F0E
100
AcDbEntity
  8
0
100
AcDbBlockEnd
  0
ENDSEC
  0
SECTION
  2
ENTITIES
  0
LINE
  5
13349
330
18
100
AcDbEntity
  8
0
100
AcDbLine
 10
50.6001900415818
 20
43.15745445905273
 30
0.0
 11
48.15519004158179
 21
43.15745445905274
 31
0.0
  0
SPLINE
  5
139C0
330
18
100
AcDbEntity
  8
0
100
AcDbSpline
210
0.0
220
0.0
230
1.0
 70
     8
 71
     3
 72
    17
 73
    13
 74
    11
 42
0.0000000001
 43
0.0000000001
 44
0.0000000001
 40
0.0
 40
0.0
 40
0.0
 40
0.0
 40
0.0680810705067889
 40
0.5193575937934364
 40
0.7365593478355664
 40
1.172054548505115
 40
1.607549749174499
 40
2.005658158507852
 40
2.219309747020105
 40
2.827030179600705
 40
3.402424932300759
 40
4.000620061728667
 40
4.000620061728667
 40
4.000620061728667
 40
4.000620061728667
 10
49.3776900415818
 20
48.16811875214543
 30
0.0
 10
49.35411615180122
 20
48.16775056825107
 30
0.0
 10
49.17428233629774
 20
48.16494187120764
 30
0.0
 10
49.15521859564194
 20
47.80216069960917
 30
0.0
 10
49.10307963230877
 20
47.46361065084208
 30
0.0
 10
48.95387373599728
 20
47.11040298714989
 30
0.0
 10
48.64866373336766
 20
46.81679866604359
 30
0.0
 10
48.41724090008597
 20
46.55255251294323
 30
0.0
 10
48.20801200127547
 20
46.20487074605428
 30
0.0
 10
48.05988781915242
 20
45.73488432128644
 30
0.0
 10
48.27824188436984
 20
45.14583264070568
 30
0.0
 10
48.55110692505593
 20
44.86374067032147
 30
0.0
 10
48.69019004158178
 20
44.71995445905271
 30
0.0
 11
49.3776900415818
 21
48.16811875214543
 31
0.0
 11
49.30982761809539
 21
48.16266681304998
 31
0.0
 11
49.14265713012031
 21
47.74349557307775
 31
0.0
 11
49.1068924458201
 21
47.52925857973654
 31
0.0
 11
48.93136300341605
 21
47.13070433668355
 31
0.0
 11
48.64411195335258
 21
46.80337742968766
 31
0.0
 11
48.38927987911162
 21
46.49751648167373
 31
0.0
 11
48.27926469778253
 21
46.31436719515877
 31
0.0
 11
48.12782897526673
 21
45.72581698819078
 31
0.0
 11
48.30645744528132
 21
45.17885173231523
 31
0.0
 11
48.69019004158178
 21
44.71995445905271
 31
0.0
  0
SPLINE
  5
139C1
330
18
100
AcDbEntity
  8
0
100
AcDbSpline
210
0.0
220
0.0
230
1.0
 70
     8
 71
     3
 72
    17
 73
    13
 74
    11
 42
0.0000000001
 43
0.0000000001
 44
0.0000000001
 40
0.0
 40
0.0
 40
0.0
 40
0.0
 40
0.0680810705067322
 40
0.5193575937933903
 40
0.7365593478355202
 40
1.172054548505069
 40
1.607549749174453
 40
2.005658158507806
 40
2.219309747020059
 40
2.827030179600652
 40
3.402424932300706
 40
4.000620061728595
 40
4.000620061728595
 40
4.000620061728595
 40
4.000620061728595
 10
49.3776900415818
 20
48.16811875214543
 30
0.0
 10
49.40126393136238
 20
48.16775056825107
 30
0.0
 10
49.58109774686583
 20
48.16494187120761
 30
0.0
 10
49.60016148752163
 20
47.80216069960917
 30
0.0
 10
49.65230045085481
 20
47.46361065084208
 30
0.0
 10
49.80150634716629
 20
47.11040298714989
 30
0.0
 10
50.10671634979594
 20
46.81679866604359
 30
0.0
 10
50.3381391830776
 20
46.55255251294324
 30
0.0
 10
50.54736808188812
 20
46.20487074605426
 30
0.0
 10
50.69549226401109
 20
45.73488432128645
 30
0.0
 10
50.47713819879371
 20
45.14583264070568
 30
0.0
 10
50.20427315810764
 20
44.86374067032148
 30
0.0
 10
50.06519004158181
 20
44.71995445905271
 30
0.0
 11
49.3776900415818
 21
48.16811875214543
 31
0.0
 11
49.44555246506816
 21
48.16266681304998
 31
0.0
 11
49.61272295304328
 21
47.74349557307775
 31
0.0
 11
49.64848763734348
 21
47.52925857973654
 31
0.0
 11
49.82401707974752
 21
47.13070433668355
 31
0.0
 11
50.111268129811
 21
46.80337742968766
 31
0.0
 11
50.36610020405197
 21
46.49751648167373
 31
0.0
 11
50.47611538538106
 21
46.31436719515877
 31
0.0
 11
50.62755110789683
 21
45.72581698819078
 31
0.0
 11
50.44892263788224
 21
45.17885173231523
 31
0.0
 11
50.06519004158181
 21
44.71995445905271
 31
0.0
  0
ARC
  5
139C2
330
18
100
AcDbEntity
  8
0
100
AcDbCircle
 10
49.9401900415819
 20
44.6303436358871
 30
0.0
 40
0.125
100
AcDbArc
 50
328.4620171928301
 51
0.0000000000097847
  0
ARC
  5
139C3
330
18
100
AcDbEntity
  8
0
100
AcDbCircle
 10
48.81519004158207
 20
44.63679100234413
 30
0.0
 40
0.125
100
AcDbArc
 50
180.0000000000163
 51
211.5316008722225
  0
SPLINE
  5
139C4
330
18
100
AcDbEntity
  8
0
100
AcDbSpline
210
0.0
220
0.0
230
1.0
 70
     8
 71
     3
 72
    10
 73
     6
 74
     0
 42
0.0000000001
 43
0.0000000001
 40
0.0327708066608271
 40
0.0327708066608271
 40
0.0327708066608271
 40
0.0327708066608271
 40
0.5400491733351075
 40
0.8820454855829826
 40
1.39343835729296
 40
1.39343835729296
 40
1.39343835729296
 40
1.39343835729296
 10
50.04672674153689
 20
44.56496067508939
 30
0.0
 10
49.95172893235061
 20
44.41016876951972
 30
0.0
 10
49.8031908479358
 20
44.14992452847879
 30
0.0
 10
50.02957308692307
 20
43.68457494480272
 30
0.0
 10
50.32540998643102
 20
43.62853584838987
 30
0.0
 10
50.50269004158181
 20
43.59495445905271
 30
0.0
  0
ARC
  5
139C5
330
18
100
AcDbEntity
  8
0
100
AcDbCircle
 10
50.56519004158181
 20
43.40745445905271
 30
0.0
 40
0.125
100
AcDbArc
 50
0.0
 51
89.99999999999985
  0
ARC
  5
139C6
330
18
100
AcDbEntity
  8
0
100
AcDbCircle
 10
50.6001900415818
 20
43.24745445905272
 30
0.0
 40
0.09
100
AcDbArc
 50
270.0
 51
0.0
  0
ARC
  5
139C7
330
18
100
AcDbEntity
  8
0
100
AcDbCircle
 10
48.19019004158181
 20
43.40745445905272
 30
0.0
 40
0.125
100
AcDbArc
 50
90.00000000000003
 51
179.9999999999971
  0
ARC
  5
139C8
330
18
100
AcDbEntity
  8
0
100
AcDbCircle
 10
48.15519004158179
 20
43.24745445905271
 30
0.0
 40
0.09
100
AcDbArc
 50
180.0
 51
270.0
  0
SPLINE
  5
139C9
330
18
100
AcDbEntity
  8
0
100
AcDbSpline
210
0.0
220
0.0
230
1.0
 70
     8
 71
     3
 72
    10
 73
     6
 74
     0
 42
0.0000000001
 43
0.0000000001
 40
0.0327382135745555
 40
0.0327382135745555
 40
0.0327382135745555
 40
0.0327382135745555
 40
0.5400491733351075
 40
0.8820454855829826
 40
1.395814184888258
 40
1.395814184888258
 40
1.395814184888258
 40
1.395814184888258
 10
48.70864605955577
 20
44.57141990862496
 30
0.0
 10
48.80370732703559
 20
44.4164858942535
 30
0.0
 10
48.95234055217528
 20
44.15604967026872
 30
0.0
 10
48.72495847412525
 20
43.69127757236547
 30
0.0
 10
48.42985745001215
 20
43.6310892399985
 30
0.0
 10
48.2526900415818
 20
43.59495445905271
 30
0.0
  0
LINE
  5
139CA
330
18
100
AcDbEntity
  8
0
100
AcDbLine
 10
50.50269004158181
 20
43.59495445905271
 30
0.0
 11
50.50269004158181
 21
43.53245445905272
 31
0.0
  0
LINE
  5
139CB
330
18
100
AcDbEntity
  8
0
100
AcDbLine
 10
48.2526900415818
 20
43.59495445905271
 30
0.0
 11
48.2526900415818
 21
43.53245445905272
 31
0.0
  0
LINE
  5
139CC
330
18
100
AcDbEntity
  8
0
100
AcDbLine
 10
48.19019004158181
 20
43.53245445905272
 30
0.0
 11
50.56519004158181
 21
43.53245445905272
 31
0.0
  0
LINE
  5
139CD
330
18
100
AcDbEntity
  8
0
100
AcDbLine
 10
50.69019004158181
 20
43.40745445905271
 30
0.0
 11
50.69019004158181
 21
43.24745445905272
 31
0.0
  0
LINE
  5
139CE
330
18
100
AcDbEntity
  8
0
100
AcDbLine
 10
48.06519004158179
 20
43.24745445905271
 30
0.0
 11
48.06519004158181
 21
43.40745445905272
 31
0.0
  0
LINE
  5
139CF
330
18
100
AcDbEntity
  8
0
100
AcDbLine
 10
48.2526900415818
 20
43.59495445905271
 30
0.0
 11
50.50269004158181
 21
43.59495445905271
 31
0.0
  0
LINE
  5
139D0
330
18
100
AcDbEntity
  8
0
100
AcDbLine
 10
48.69739910965
 20
44.59495445905271
 30
0.0
 11
50.0600758462586
 21
44.59495445905271
 31
0.0
  0
LINE
  5
139D1
330
18
100
AcDbEntity
  8
0
100
AcDbLine
 10
48.69019004158181
 20
44.6367910023441
 30
0.0
 11
48.69019004158181
 21
44.71995445905271
 31
0.0
  0
LINE
  5
139D2
330
18
100
AcDbEntity
  8
0
100
AcDbLine
 10
50.06519004158181
 20
44.63034363588714
 30
0.0
 11
50.06519004158181
 21
44.71995445905271
 31
0.0
  0
LINE
  5
139D3
330
18
100
AcDbEntity
  8
0
100
AcDbLine
 10
48.69019004158181
 20
44.71995445905271
 30
0.0
 11
50.06519004158181
 21
44.71995445905271
 31
0.0
  0
LINE
  5
139D4
330
18
100
AcDbEntity
  8
0
100
AcDbLine
 10
50.6001900415818
 20
43.15745445905272
 30
0.0
 11
48.15519004158179
 21
43.15745445905271
 31
0.0
  0
VIEWPORT
  5
13985
330
15
100
AcDbEntity
 67
     1
  8
0
100
AcDbViewport
 10
5.249999639556163
 20
3.999999883606677
 30
0.0
 40
17.58407771518677
 41
8.992999745766947
 68
     2
 69
     1
 12
5.249999639556163
 22
3.999999883606677
 13
0.0
 23
0.0
 14
10.0
 24
10.0
 15
10.0
 25
10.0
 16
0.0
 26
0.0
 36
1.0
 17
0.0
 27
0.0
 37
0.0
 42
50.0
 43
0.0
 44
0.0
 45
8.992999745766947
 50
0.0
 51
0.0
 72
   100
 90
    32800
  1

281
     0
 71
     1
 74
     0
110
0.0
120
0.0
130
0.0
111
1.0
121
0.0
131
0.0
112
0.0
122
1.0
132
0.0
 79
     0
146
0.0
170
     0
  0
VIEWPORT
  5
13987
330
15
100
AcDbEntity
 67
     1
  8
0
100
AcDbViewport
 10
5.24999976158142
 20
3.99999976158142
 30
0.0
 40
8.399999618530271
 41
6.399999618530272
 68
     1
 69
     2
 12
48.88513179484539
 22
39.76742746492352
 13
0.0
 23
0.0
 14
0.5
 24
0.5
 15
0.5
 25
0.5
 16
0.0
 26
0.0
 36
1.0
 17
0.0
 27
0.0
 37
0.0
 42
50.0
 43
0.0
 44
0.0
 45
36.19474918001159
 50
0.0
 51
0.0
 72
   100
 90
    32768
  1

281
     0
 71
     1
 74
     0
110
0.0
120
0.0
130
0.0
111
1.0
121
0.0
131
0.0
112
0.0
122
1.0
132
0.0
 79
     0
146
0.0
170
     0
  0
ENDSEC
  0
SECTION
  2
OBJECTS
  0
DICTIONARY
  5
C
330
0
100
AcDbDictionary
281
     1
  3
ACAD_COLOR
350
13125
  3
ACAD_GROUP
350
D
  3
ACAD_IMAGE_DICT
350
21
  3
ACAD_IMAGE_VARS
350
20
  3
ACAD_LAYOUT
350
13126
  3
ACAD_MATERIAL
350
13124
  3
ACAD_MLINESTYLE
350
1B
  3
ACAD_PLOTSETTINGS
350
13127
  3
ACAD_PLOTSTYLENAME
350
13122
  0
DICTIONARY
  5
13125
102
{ACAD_REACTORS
330
C
102
}
330
C
100
AcDbDictionary
281
     1
  0
DICTIONARY
  5
D
102
{ACAD_REACTORS
330
C
102
}
330
C
100
AcDbDictionary
281
     1
  0
DICTIONARY
  5
21
102
{ACAD_REACTORS
330
C
102
}
330
C
100
AcDbDictionary
281
     1
  3
3316-1
350
F2F6
  3
3316-2
350
F2F9
  3
3316-3
350
F2FC
  3
3316-4
350
F2FF
  3
3316-5
350
F302
  0
RASTERVARIABLES
  5
20
102
{ACAD_REACTORS
330
C
102
}
330
C
100
AcDbRasterVariables
 90
        0
 70
     1
 71
     1
 72
     0
  0
DICTIONARY
  5
13126
102
{ACAD_REACTORS
330
C
102
}
330
C
100
AcDbDictionary
281
     1
  3
Layout1
350
13129
  3
Model
350
13128
  0
DICTIONARY
  5
13124
102
{ACAD_REACTORS
330
C
102
}
330
C
100
AcDbDictionary
281
     1
  0
DICTIONARY
  5
1B
102
{ACAD_REACTORS
330
C
102
}
330
C
100
AcDbDictionary
281
     1
  3
STANDARD
350
1C
  0
DICTIONARY
  5
13127
102
{ACAD_REACTORS
330
C
102
}
330
C
100
AcDbDictionary
281
     1
  0
ACDBDICTIONARYWDFLT
  5
13122
102
{ACAD_REACTORS
330
C
102
}
330
C
100
AcDbDictionary
281
     1
  3
Normal
350
13123
100
AcDbDictionaryWithDefault
340
13123
  0
IMAGEDEF
  5
F2F6
102
{ACAD_REACTORS
330
21
102
}
330
21
100
AcDbRasterImageDef
 90
        0
  1
U:\TPDWG\MichelQ\3316-1.tif
 10
2928.0
 20
3748.0
 11
0.0705555555555556
 21
0.0705555555555556
280
     1
281
     5
  0
IMAGEDEF
  5
F2F9
102
{ACAD_REACTORS
330
21
102
}
330
21
100
AcDbRasterImageDef
 90
        0
  1
U:\TPDWG\MichelQ\3316-2.tif
 10
2928.0
 20
3748.0
 11
0.0705555555555556
 21
0.0705555555555556
280
     1
281
     5
  0
IMAGEDEF
  5
F2FC
102
{ACAD_REACTORS
330
21
102
}
330
21
100
AcDbRasterImageDef
 90
        0
  1
U:\TPDWG\MichelQ\3316-3.tif
 10
2928.0
 20
3748.0
 11
0.0705555555555556
 21
0.0705555555555556
280
     1
281
     5
  0
IMAGEDEF
  5
F2FF
102
{ACAD_REACTORS
330
21
102
}
330
21
100
AcDbRasterImageDef
 90
        0
  1
U:\TPDWG\MichelQ\3316-4.tif
 10
2928.0
 20
3748.0
 11
0.0705555555555556
 21
0.0705555555555556
280
     1
281
     5
  0
IMAGEDEF
  5
F302
102
{ACAD_REACTORS
330
21
102
}
330
21
100
AcDbRasterImageDef
 90
        0
  1
U:\TPDWG\MichelQ\3316-5.tif
 10
2928.0
 20
3748.0
 11
0.0705555555555556
 21
0.0705555555555556
280
     1
281
     5
  0
LAYOUT
  5
13129
102
{ACAD_REACTORS
330
13126
102
}
330
13126
100
AcDbPlotSettings
  1

  2
none_device
  4
Letter_(8.50_x_11.00_Inches)
  6

 40
6.349999904632568
 41
6.349999904632568
 42
6.350006103515625
 43
6.350006103515625
 44
215.8999938964844
 45
279.3999938964844
 46
0.0
 47
0.0
 48
0.0
 49
0.0
140
0.0
141
0.0
142
1.0
143
1.0
 70
   688
 72
     0
 73
     1
 74
     5
  7

 75
    16
147
1.0
 76
     1
 77
     2
 78
   300
148
0.0
149
0.0
100
AcDbLayout
  1
Layout1
 70
     1
 71
     1
 10
-0.2500002402958907
 20
-0.2499999962453767
 11
10.74999951940821
 21
8.249999763458731
 12
0.0
 22
0.0
 32
0.0
 14
1.049636599258096
 24
0.7996597240971113
 34
-0.0000000349181948
 15
9.450362731076971
 25
7.200340082697458
 35
0.0000000814935746
146
0.0
 13
0.0
 23
0.0
 33
0.0
 16
1.0
 26
0.0
 36
0.0
 17
0.0
 27
1.0
 37
0.0
 76
     0
330
15
331
13987
  0
LAYOUT
  5
13128
102
{ACAD_REACTORS
330
13126
102
}
330
13126
100
AcDbPlotSettings
  1

  2
None
  4

  6

 40
0.0
 41
0.0
 42
0.0
 43
0.0
 44
0.0
 45
0.0
 46
0.0
 47
0.0
 48
0.0
 49
0.0
140
0.0
141
0.0
142
1.0
143
1.0
 70
  1712
 72
     0
 73
     0
 74
     0
  7

 75
     0
147
1.0
 76
     0
 77
     2
 78
   300
148
0.0
149
0.0
100
AcDbLayout
  1
Model
 70
     1
 71
     0
 10
0.0
 20
0.0
 11
12.0
 21
9.0
 12
0.0
 22
0.0
 32
0.0
 14
0.0
 24
0.0
 34
0.0
 15
0.0
 25
0.0
 35
0.0
146
0.0
 13
0.0
 23
0.0
 33
0.0
 16
1.0
 26
0.0
 36
0.0
 17
0.0
 27
1.0
 37
0.0
 76
     0
330
18
  0
MLINESTYLE
  5
1C
102
{ACAD_REACTORS
330
1B
102
}
330
1B
100
AcDbMlineStyle
  2
STANDARD
 70
     0
  3

 62
   256
 51
90.0
 52
90.0
 71
     2
 49
0.5
 62
   256
  6
BYLAYER
 49
-0.5
 62
   256
  6
BYLAYER
  0
ACDBPLACEHOLDER
  5
13123
102
{ACAD_REACTORS
330
13122
102
}
330
13122
  0
ENDSEC
  0
EOF
