  0
SECTION
  2
HEADER
  9
$ACADVER
  1
AC1018
  9
$ACADMAINTVER
 70
     0
  9
$DWGCODEPAGE
  3
ANSI_1252
  9
$INSBASE
 10
0.0
 20
0.0
 30
0.0
  9
$EXTMIN
 10
24.017631
 20
9.704848
 30
0.0
  9
$EXTMAX
 10
52.152069
 20
15.204848
 30
0.0
  9
$LIMMIN
 10
0.0
 20
0.0
  9
$LIMMAX
 10
420.0
 20
297.0
  9
$ORTHOMODE
 70
     1
  9
$REGENMODE
 70
     1
  9
$FILLMODE
 70
     1
  9
$QTEXTMODE
 70
     0
  9
$MIRRTEXT
 70
     1
  9
$LTSCALE
 40
1.0
  9
$ATTMODE
 70
     1
  9
$TEXTSIZE
 40
2.5
  9
$TRACEWID
 40
1.0
  9
$TEXTSTYLE
  7
STANDARD
  9
$CLAYER
  8
0
  9
$CELTYPE
  6
BYLAYER
  9
$CECOLOR
 62
   256
  9
$CELTSCALE
 40
1.0
  9
$DISPSILH
 70
     0
  9
$DIMSCALE
 40
1.0
  9
$DIMASZ
 40
0.18
  9
$DIMEXO
 40
0.0625
  9
$DIMDLI
 40
0.38
  9
$DIMRND
 40
0.0
  9
$DIMDLE
 40
0.0
  9
$DIMEXE
 40
0.18
  9
$DIMTP
 40
0.0
  9
$DIMTM
 40
0.0
  9
$DIMTXT
 40
0.125
  9
$DIMCEN
 40
0.09
  9
$DIMTSZ
 40
0.0
  9
$DIMTOL
 70
     0
  9
$DIMLIM
 70
     0
  9
$DIMTIH
 70
     0
  9
$DIMTOH
 70
     0
  9
$DIMSE1
 70
     0
  9
$DIMSE2
 70
     0
  9
$DIMTAD
 70
     0
  9
$DIMZIN
 70
     0
  9
$DIMBLK
  1

  9
$DIMASO
 70
     1
  9
$DIMSHO
 70
     1
  9
$DIMPOST
  1

  9
$DIMAPOST
  1

  9
$DIMALT
 70
     0
  9
$DIMALTD
 70
     2
  9
$DIMALTF
 40
25.4
  9
$DIMLFAC
 40
1.0
  9
$DIMTOFL
 70
     0
  9
$DIMTVP
 40
0.0
  9
$DIMTIX
 70
     0
  9
$DIMSOXD
 70
     0
  9
$DIMSAH
 70
     0
  9
$DIMBLK1
  1

  9
$DIMBLK2
  1

  9
$DIMSTYLE
  2
STANDARD
  9
$DIMCLRD
 70
     0
  9
$DIMCLRE
 70
     0
  9
$DIMCLRT
 70
     0
  9
$DIMTFAC
 40
1.0
  9
$DIMGAP
 40
0.09
  9
$DIMJUST
 70
     0
  9
$DIMSD1
 70
     0
  9
$DIMSD2
 70
     0
  9
$DIMTOLJ
 70
     1
  9
$DIMTZIN
 70
     0
  9
$DIMALTZ
 70
     0
  9
$DIMALTTZ
 70
     0
  9
$DIMUPT
 70
     0
  9
$DIMDEC
 70
     4
  9
$DIMTDEC
 70
     4
  9
$DIMALTU
 70
     2
  9
$DIMALTTD
 70
     2
  9
$DIMTXSTY
  7
STANDARD
  9
$DIMAUNIT
 70
     0
  9
$DIMADEC
 70
     0
  9
$DIMALTRND
 40
0.0
  9
$DIMAZIN
 70
     0
  9
$DIMDSEP
 70
    46
  9
$DIMATFIT
 70
     3
  9
$DIMFRAC
 70
     0
  9
$DIMLDRBLK
  1

  9
$DIMLUNIT
 70
     2
  9
$DIMLWD
 70
    -2
  9
$DIMLWE
 70
    -2
  9
$DIMTMOVE
 70
     0
  9
$LUNITS
 70
     4
  9
$LUPREC
 70
     4
  9
$SKETCHINC
 40
1.0
  9
$FILLETRAD
 40
0.01
  9
$AUNITS
 70
     0
  9
$AUPREC
 70
     0
  9
$MENU
  1
.
  9
$ELEVATION
 40
0.0
  9
$PELEVATION
 40
0.0
  9
$THICKNESS
 40
0.0
  9
$LIMCHECK
 70
     0
  9
$CHAMFERA
 40
10.0
  9
$CHAMFERB
 40
10.0
  9
$CHAMFERC
 40
20.0
  9
$CHAMFERD
 40
0.0
  9
$SKPOLY
 70
     0
  9
$TDCREATE
 40
2451158.474098033
  9
$TDUCREATE
 40
2451158.640764699
  9
$TDUPDATE
 40
2453488.694949074
  9
$TDUUPDATE
 40
2453488.861615741
  9
$TDINDWG
 40
0.3170743287
  9
$TDUSRTIMER
 40
0.3170743287
  9
$USRTIMER
 70
     1
  9
$ANGBASE
 50
0.0
  9
$ANGDIR
 70
     0
  9
$PDMODE
 70
     3
  9
$PDSIZE
 40
1.0
  9
$PLINEWID
 40
0.0
  9
$SPLFRAME
 70
     0
  9
$SPLINETYPE
 70
     6
  9
$SPLINESEGS
 70
     8
  9
$HANDSEED
  5
3409
  9
$SURFTAB1
 70
     6
  9
$SURFTAB2
 70
     6
  9
$SURFTYPE
 70
     6
  9
$SURFU
 70
     6
  9
$SURFV
 70
     6
  9
$UCSBASE
  2

  9
$UCSNAME
  2

  9
$UCSORG
 10
0.0
 20
0.0
 30
0.0
  9
$UCSXDIR
 10
1.0
 20
0.0
 30
0.0
  9
$UCSYDIR
 10
0.0
 20
1.0
 30
0.0
  9
$UCSORTHOREF
  2

  9
$UCSORTHOVIEW
 70
     0
  9
$UCSORGTOP
 10
0.0
 20
0.0
 30
0.0
  9
$UCSORGBOTTOM
 10
0.0
 20
0.0
 30
0.0
  9
$UCSORGLEFT
 10
0.0
 20
0.0
 30
0.0
  9
$UCSORGRIGHT
 10
0.0
 20
0.0
 30
0.0
  9
$UCSORGFRONT
 10
0.0
 20
0.0
 30
0.0
  9
$UCSORGBACK
 10
0.0
 20
0.0
 30
0.0
  9
$PUCSBASE
  2

  9
$PUCSNAME
  2

  9
$PUCSORG
 10
0.0
 20
0.0
 30
0.0
  9
$PUCSXDIR
 10
1.0
 20
0.0
 30
0.0
  9
$PUCSYDIR
 10
0.0
 20
1.0
 30
0.0
  9
$PUCSORTHOREF
  2

  9
$PUCSORTHOVIEW
 70
     0
  9
$PUCSORGTOP
 10
0.0
 20
0.0
 30
0.0
  9
$PUCSORGBOTTOM
 10
0.0
 20
0.0
 30
0.0
  9
$PUCSORGLEFT
 10
0.0
 20
0.0
 30
0.0
  9
$PUCSORGRIGHT
 10
0.0
 20
0.0
 30
0.0
  9
$PUCSORGFRONT
 10
0.0
 20
0.0
 30
0.0
  9
$PUCSORGBACK
 10
0.0
 20
0.0
 30
0.0
  9
$USERI1
 70
     0
  9
$USERI2
 70
     0
  9
$USERI3
 70
     0
  9
$USERI4
 70
     0
  9
$USERI5
 70
     0
  9
$USERR1
 40
0.0
  9
$USERR2
 40
0.0
  9
$USERR3
 40
0.0
  9
$USERR4
 40
0.0
  9
$USERR5
 40
0.0
  9
$WORLDVIEW
 70
     1
  9
$SHADEDGE
 70
     3
  9
$SHADEDIF
 70
    70
  9
$TILEMODE
 70
     1
  9
$MAXACTVP
 70
    48
  9
$PINSBASE
 10
0.0
 20
0.0
 30
0.0
  9
$PLIMCHECK
 70
     0
  9
$PEXTMIN
 10
1.000000000000000E+20
 20
1.000000000000000E+20
 30
1.000000000000000E+20
  9
$PEXTMAX
 10
-1.000000000000000E+20
 20
-1.000000000000000E+20
 30
-1.000000000000000E+20
  9
$PLIMMIN
 10
0.0
 20
0.0
  9
$PLIMMAX
 10
420.0
 20
297.0
  9
$UNITMODE
 70
     0
  9
$VISRETAIN
 70
     1
  9
$PLINEGEN
 70
     0
  9
$PSLTSCALE
 70
     1
  9
$TREEDEPTH
 70
  3020
  9
$CMLSTYLE
  2
STANDARD
  9
$CMLJUST
 70
     0
  9
$CMLSCALE
 40
20.0
  9
$PROXYGRAPHICS
 70
     1
  9
$MEASUREMENT
 70
     1
  9
$CELWEIGHT
370
    -1
  9
$ENDCAPS
280
     0
  9
$JOINSTYLE
280
     0
  9
$LWDISPLAY
290
     0
  9
$INSUNITS
 70
     0
  9
$HYPERLINKBASE
  1

  9
$STYLESHEET
  1

  9
$XEDIT
290
     1
  9
$CEPSNTYPE
380
     0
  9
$PSTYLEMODE
290
     1
  9
$FINGERPRINTGUID
  2
{B85F19E9-FEA0-4938-A2E9-66B20CD7B33D}
  9
$VERSIONGUID
  2
{14F9BB3B-BF6E-4375-A2C0-BC2FBF40D9E5}
  9
$EXTNAMES
290
     1
  9
$PSVPSCALE
 40
0.0
  9
$OLESTARTUP
290
     0
  9
$SORTENTS
280
   127
  9
$INDEXCTL
280
     0
  9
$HIDETEXT
280
     0
  9
$XCLIPFRAME
290
     0
  9
$HALOGAP
280
     0
  9
$OBSCOLOR
 70
   257
  9
$OBSLTYPE
280
     0
  9
$INTERSECTIONDISPLAY
280
     0
  9
$INTERSECTIONCOLOR
 70
   257
  9
$DIMASSOC
280
     1
  9
$PROJECTNAME
  1

  0
ENDSEC
  0
SECTION
  2
CLASSES
  0
CLASS
  1
RASTERVARIABLES
  2
AcDbRasterVariables
  3
ISM
 90
        0
 91
        1
280
     0
281
     0
  0
CLASS
  1
IMAGEDEF
  2
AcDbRasterImageDef
  3
ISM
 90
        0
 91
        6
280
     0
281
     0
  0
CLASS
  1
IMAGEDEF_REACTOR
  2
AcDbRasterImageDefReactor
  3
ISM
 90
        1
 91
        0
280
     0
281
     0
  0
CLASS
  1
IMAGE
  2
AcDbRasterImage
  3
ISM
 90
      127
 91
        0
280
     0
281
     1
  0
CLASS
  1
ACDBDICTIONARYWDFLT
  2
AcDbDictionaryWithDefault
  3
ObjectDBX Classes
 90
        0
 91
        1
280
     0
281
     0
  0
ENDSEC
  0
SECTION
  2
TABLES
  0
TABLE
  2
VPORT
  5
8
330
0
100
AcDbSymbolTable
 70
     2
  0
VPORT
  5
3408
330
8
100
AcDbSymbolTableRecord
100
AcDbViewportTableRecord
  2
*Active
 70
     0
 10
0.0
 20
0.0
 11
1.0
 21
1.0
 12
41.20010917145188
 22
12.14141278614462
 13
0.0
 23
0.0
 14
10.0
 24
10.0
 15
10.0
 25
10.0
 16
0.0
 26
0.0
 36
1.0
 17
0.0
 27
0.0
 37
0.0
 40
26.71924458580721
 41
1.977142857142857
 42
50.0
 43
0.0
 44
0.0
 50
0.0
 51
0.0
 71
     0
 72
   100
 73
     1
 74
     1
 75
     0
 76
     0
 77
     0
 78
     0
281
     0
 65
     1
110
0.0
120
0.0
130
0.0
111
1.0
121
0.0
131
0.0
112
0.0
122
1.0
132
0.0
 79
     0
146
0.0
  0
ENDTAB
  0
TABLE
  2
LTYPE
  5
5
330
0
100
AcDbSymbolTable
 70
     1
  0
LTYPE
  5
12
330
5
100
AcDbSymbolTableRecord
100
AcDbLinetypeTableRecord
  2
BYBLOCK
 70
     0
  3

 72
    65
 73
     0
 40
0.0
  0
LTYPE
  5
13
330
5
100
AcDbSymbolTableRecord
100
AcDbLinetypeTableRecord
  2
BYLAYER
 70
     0
  3

 72
    65
 73
     0
 40
0.0
  0
LTYPE
  5
14
330
5
100
AcDbSymbolTableRecord
100
AcDbLinetypeTableRecord
  2
CONTINUOUS
 70
     0
  3
Solid line
 72
    65
 73
     0
 40
0.0
  0
ENDTAB
  0
TABLE
  2
LAYER
  5
2
330
0
100
AcDbSymbolTable
 70
     2
  0
LAYER
  5
E
330
2
100
AcDbSymbolTableRecord
100
AcDbLayerTableRecord
  2
0
 70
     0
 62
     7
  6
CONTINUOUS
370
    -3
390
3314
  0
LAYER
  5
3324
330
2
100
AcDbSymbolTableRecord
100
AcDbLayerTableRecord
  2
Defpoints
 70
     0
 62
     7
  6
CONTINUOUS
290
     0
370
    -3
390
3314
  0
ENDTAB
  0
TABLE
  2
STYLE
  5
3
330
0
100
AcDbSymbolTable
 70
     1
  0
STYLE
  5
F
330
3
100
AcDbSymbolTableRecord
100
AcDbTextStyleTableRecord
  2
STANDARD
 70
     0
 40
0.0
 41
1.0
 50
0.0
 71
     0
 42
2.5
  3
txt
  4

  0
ENDTAB
  0
TABLE
  2
VIEW
  5
6
330
0
100
AcDbSymbolTable
 70
     0
  0
ENDTAB
  0
TABLE
  2
UCS
  5
7
330
0
100
AcDbSymbolTable
 70
     0
  0
ENDTAB
  0
TABLE
  2
APPID
  5
9
330
0
100
AcDbSymbolTable
 70
     1
  0
APPID
  5
10
330
9
100
AcDbSymbolTableRecord
100
AcDbRegAppTableRecord
  2
ACAD
 70
     0
  0
ENDTAB
  0
TABLE
  2
DIMSTYLE
  5
A
330
0
100
AcDbSymbolTable
 70
     1
100
AcDbDimStyleTable
 71
     1
340
1D
  0
DIMSTYLE
105
1D
330
A
100
AcDbSymbolTableRecord
100
AcDbDimStyleTableRecord
  2
STANDARD
 70
     0
 73
     0
 74
     0
140
0.125
340
F
  0
ENDTAB
  0
TABLE
  2
BLOCK_RECORD
  5
1
330
0
100
AcDbSymbolTable
 70
    12
  0
BLOCK_RECORD
  5
18
330
1
100
AcDbSymbolTableRecord
100
AcDbBlockTableRecord
  2
*MODEL_SPACE
340
3319
  0
BLOCK_RECORD
  5
15
330
1
100
AcDbSymbolTableRecord
100
AcDbBlockTableRecord
  2
*PAPER_SPACE
340
331A
  0
BLOCK_RECORD
  5
32D2
330
1
100
AcDbSymbolTableRecord
100
AcDbBlockTableRecord
  2
6118_E
340
0
  0
BLOCK_RECORD
  5
32E0
330
1
100
AcDbSymbolTableRecord
100
AcDbBlockTableRecord
  2
6118_C
340
0
  0
ENDTAB
  0
ENDSEC
  0
SECTION
  2
BLOCKS
  0
BLOCK
  5
19
330
18
100
AcDbEntity
  8
0
100
AcDbBlockBegin
  2
*MODEL_SPACE
 70
     0
 10
0.0
 20
0.0
 30
0.0
  3
*MODEL_SPACE
  1

  0
ENDBLK
  5
1A
330
18
100
AcDbEntity
  8
0
100
AcDbBlockEnd
  0
BLOCK
  5
16
330
15
100
AcDbEntity
 67
     1
  8
0
100
AcDbBlockBegin
  2
*PAPER_SPACE
 70
     0
 10
0.0
 20
0.0
 30
0.0
  3
*PAPER_SPACE
  1

  0
ENDBLK
  5
17
330
15
100
AcDbEntity
 67
     1
  8
0
100
AcDbBlockEnd
  0
BLOCK
  5
3302
330
32D2
100
AcDbEntity
  8
0
100
AcDbBlockBegin
  2
6118_E
 70
     0
 10
0.0
 20
0.0
 30
0.0
  3
6118_E
  1

  0
LINE
  5
3303
330
32D2
100
AcDbEntity
  8
0
100
AcDbLine
 10
36.0
 20
-4.0
 30
0.0
 11
0.0
 21
-4.0
 31
0.0
  0
LINE
  5
3304
330
32D2
100
AcDbEntity
  8
0
100
AcDbLine
 10
36.0
 20
-3.1875
 30
0.0
 11
0.0
 21
-3.1875
 31
0.0
  0
LINE
  5
3305
330
32D2
100
AcDbEntity
  8
0
100
AcDbLine
 10
36.0
 20
-1.706011999999999
 30
0.0
 11
0.0
 21
-1.706011999999999
 31
0.0
  0
LINE
  5
3306
330
32D2
100
AcDbEntity
  8
0
100
AcDbLine
 10
36.0
 20
-1.030542999999999
 30
0.0
 11
0.0
 21
-1.030542999999999
 31
0.0
  0
LINE
  5
3307
330
32D2
100
AcDbEntity
  8
0
100
AcDbLine
 10
0.0
 20
-5.5
 30
0.0
 11
36.0
 21
-5.5
 31
0.0
  0
LINE
  5
3308
330
32D2
100
AcDbEntity
  8
0
100
AcDbLine
 10
0.0
 20
0.0
 30
0.0
 11
36.0
 21
0.0
 31
0.0
  0
LINE
  5
3309
330
32D2
100
AcDbEntity
  8
0
100
AcDbLine
 10
0.0
 20
0.0
 30
0.0
 11
0.0
 21
-5.5
 31
0.0
  0
LINE
  5
330A
330
32D2
100
AcDbEntity
  8
0
100
AcDbLine
 10
36.0
 20
0.0
 30
0.0
 11
36.0
 21
-5.5
 31
0.0
  0
ENDBLK
  5
330B
330
32D2
100
AcDbEntity
  8
0
100
AcDbBlockEnd
  0
BLOCK
  5
32E1
330
32E0
100
AcDbEntity
  8
0
100
AcDbBlockBegin
  2
6118_C
 70
     0
 10
0.0
 20
0.0
 30
0.0
  3
6118_C
  1

  0
LINE
  5
32E2
330
32E0
100
AcDbEntity
  8
0
100
AcDbLine
 10
-1.75
 20
0.0
 30
0.0
 11
0.0
 21
0.0
 31
0.0
  0
LINE
  5
32E3
330
32E0
100
AcDbEntity
  8
0
100
AcDbLine
 10
-0.75
 20
-5.5
 30
0.0
 11
0.0
 21
-5.5
 31
0.0
  0
LINE
  5
32E4
330
32E0
100
AcDbEntity
  8
0
100
AcDbLine
 10
-1.375
 20
-3.1875
 30
0.0
 11
-1.4939
 21
-3.526661
 31
0.0
  0
ARC
  5
32E5
330
32E0
100
AcDbEntity
  8
0
100
AcDbCircle
 10
-1.391669
 20
-3.5625
 30
0.0
 40
0.108331
100
AcDbArc
 50
160.68082
 51
259.41549
  0
LINE
  5
32E6
330
32E0
100
AcDbEntity
  8
0
100
AcDbLine
 10
-1.3125
 20
-3.6875
 30
0.0
 11
-1.411567999999999
 21
-3.668987999999999
 31
0.0
  0
LINE
  5
32E7
330
32E0
100
AcDbEntity
  8
0
100
AcDbLine
 10
-0.75
 20
-5.5
 30
0.0
 11
-0.75
 21
-4.0
 31
0.0
  0
LINE
  5
32E8
330
32E0
100
AcDbEntity
  8
0
100
AcDbLine
 10
-1.3125
 20
-3.6875
 30
0.0
 11
-1.0625
 21
-3.6875
 31
0.0
  0
ARC
  5
32E9
330
32E0
100
AcDbEntity
  8
0
100
AcDbCircle
 10
-0.75
 20
-3.6875
 30
0.0
 40
0.3125
100
AcDbArc
 50
180.0
 51
270.0
  0
LINE
  5
32EA
330
32E0
100
AcDbEntity
  8
0
100
AcDbLine
 10
-1.75
 20
-0.4375
 30
0.0
 11
-1.75
 21
0.0
 31
0.0
  0
LINE
  5
32EB
330
32E0
100
AcDbEntity
  8
0
100
AcDbLine
 10
-1.75
 20
-0.4375
 30
0.0
 11
-1.4375
 21
-0.4375
 31
0.0
  0
ARC
  5
32EC
330
32E0
100
AcDbEntity
  8
0
100
AcDbCircle
 10
-1.4375
 20
-0.747195
 30
0.0
 40
0.309695
100
AcDbArc
 50
90.0
 51
246.195157
  0
LINE
  5
32ED
330
32E0
100
AcDbEntity
  8
0
100
AcDbLine
 10
-1.5625
 20
-1.155542999999999
 30
0.0
 11
-1.5625
 21
-1.030542999999999
 31
0.0
  0
ARC
  5
32EE
330
32E0
100
AcDbEntity
  8
0
100
AcDbCircle
 10
-2.02129
 20
-1.688279
 30
0.0
 40
0.7087909999999999
100
AcDbArc
 50
0.063004
 51
49.662712
  0
LINE
  5
32EF
330
32E0
100
AcDbEntity
  8
0
100
AcDbLine
 10
-1.3125
 20
-1.6875
 30
0.0
 11
-1.411567999999999
 21
-1.706011999999999
 31
0.0
  0
LINE
  5
32F0
330
32E0
100
AcDbEntity
  8
0
100
AcDbLine
 10
-1.375
 20
-2.1875
 30
0.0
 11
-1.4939
 21
-1.848338999999999
 31
0.0
  0
ARC
  5
32F1
330
32E0
100
AcDbEntity
  8
0
100
AcDbCircle
 10
-1.391669
 20
-1.8125
 30
0.0
 40
0.108331
100
AcDbArc
 50
100.58451
 51
199.31918
  0
LINE
  5
32F2
330
32E0
100
AcDbEntity
  8
0
100
AcDbLine
 10
-1.375
 20
-2.1875
 30
0.0
 11
-1.3125
 21
-2.1875
 31
0.0
  0
LINE
  5
32F3
330
32E0
100
AcDbEntity
  8
0
100
AcDbLine
 10
-1.375
 20
-3.1875
 30
0.0
 11
-1.3125
 21
-3.1875
 31
0.0
  0
LINE
  5
32F4
330
32E0
100
AcDbEntity
  8
0
100
AcDbLine
 10
-1.375
 20
-3.1875
 30
0.0
 11
-1.3125
 21
-3.1875
 31
0.0
  0
LINE
  5
32F5
330
32E0
100
AcDbEntity
  8
0
100
AcDbLine
 10
-1.3125
 20
-3.1875
 30
0.0
 11
-1.3125
 21
-2.1875
 31
0.0
  0
LINE
  5
32F6
330
32E0
100
AcDbEntity
  8
0
100
AcDbLine
 10
0.0
 20
-5.5
 30
0.0
 11
0.0
 21
0.0
 31
0.0
  0
ENDBLK
  5
32F7
330
32E0
100
AcDbEntity
  8
0
100
AcDbBlockEnd
  0
ENDSEC
  0
SECTION
  2
ENTITIES
  0
LINE
  5
3200
330
18
100
AcDbEntity
  8
0
100
AcDbLine
 10
50.402069
 20
15.204848
 30
0.0
 11
52.152069
 21
15.204848
 31
0.0
  0
LINE
  5
3232
330
18
100
AcDbEntity
  8
0
100
AcDbLine
 10
50.402069
 20
14.767348
 30
0.0
 11
50.402069
 21
15.204848
 31
0.0
  0
LINE
  5
325A
330
18
100
AcDbEntity
  8
0
100
AcDbLine
 10
45.017631
 20
15.204848
 30
0.0
 11
45.017631
 21
9.704848
 31
0.0
  0
LINE
  5
3294
330
18
100
AcDbEntity
  8
0
100
AcDbLine
 10
52.152069
 20
9.704848
 30
0.0
 11
52.152069
 21
15.204848
 31
0.0
  0
LINE
  5
3295
330
18
100
AcDbEntity
  8
0
100
AcDbLine
 10
50.402069
 20
14.767348
 30
0.0
 11
50.70456899999999
 21
14.767348
 31
0.0
  0
ARC
  5
3298
330
18
100
AcDbEntity
  8
0
100
AcDbCircle
 10
50.70079469300413
 20
14.43740860826413
 30
0.0
 40
0.2990567767296568
100
AcDbArc
 50
89.30026696244553
 51
260.6229226769459
  0
LINE
  5
3299
330
18
100
AcDbEntity
  8
0
100
AcDbLine
 10
50.652069
 20
14.04649580818145
 30
0.0
 11
50.652069
 21
14.142348
 31
0.0
  0
LINE
  5
329A
330
18
100
AcDbEntity
  8
0
100
AcDbLine
 10
51.40206899999999
 20
9.704848
 30
0.0
 11
52.152069
 21
9.704848
 31
0.0
  0
ARC
  5
32A1
330
18
100
AcDbEntity
  8
0
100
AcDbCircle
 10
50.39132340841559
 20
13.57038645491994
 30
0.0
 40
0.5134921616357011
100
AcDbArc
 50
354.0712951417251
 51
56.67445997368499
  0
LINE
  5
32BA
330
18
100
AcDbEntity
  8
0
100
AcDbLine
 10
51.40206899999999
 20
9.704848
 30
0.0
 11
51.40206899999999
 21
11.079848
 31
0.0
  0
LINE
  5
32C0
330
18
100
AcDbEntity
  8
0
100
AcDbLine
 10
24.017631
 20
15.204848
 30
0.0
 11
24.017631
 21
9.704848
 31
0.0
  0
SPLINE
  5
339B
330
18
100
AcDbEntity
  8
0
100
AcDbSpline
210
0.0
220
0.0
230
1.0
 70
     8
 71
     3
 72
     9
 73
     5
 74
     3
 42
0.0000000001
 43
0.0000000001
 44
0.0000000001
 40
0.0
 40
0.0
 40
0.0
 40
0.0
 40
0.1486451004878631
 40
0.2504803105087584
 40
0.2504803105087584
 40
0.2504803105087584
 40
0.2504803105087584
 10
50.902069
 20
13.51734740573535
 30
0.0
 10
50.83901583978553
 20
13.49418601477327
 30
0.0
 10
50.73276561628508
 20
13.45515699611771
 30
0.0
 10
50.8086979643011
 20
13.38502263055292
 30
0.0
 10
50.839569
 20
13.35650882109435
 30
0.0
 11
50.902069
 21
13.51734740573535
 31
0.0
 11
50.777069
 21
13.43690882109435
 31
0.0
 11
50.839569
 21
13.35650882109435
 31
0.0
  0
LINE
  5
339C
330
18
100
AcDbEntity
  8
0
100
AcDbLine
 10
50.839569
 20
13.35650882109435
 30
0.0
 11
50.839569
 21
13.24387629232429
 31
0.0
  0
LINE
  5
339F
330
18
100
AcDbEntity
  8
0
100
AcDbLine
 10
51.15206899999999
 20
13.017348
 30
0.0
 11
51.04116524735287
 21
13.017348
 31
0.0
  0
ARC
  5
33A7
330
18
100
AcDbEntity
  8
0
100
AcDbCircle
 10
50.79167551087163
 20
13.00041808001221
 30
0.0
 40
0.2360015188824325
100
AcDbArc
 50
7.428648655420523
 51
75.38294883340942
  0
LINE
  5
33A8
330
18
100
AcDbEntity
  8
0
100
AcDbLine
 10
51.15206899999999
 20
13.017348
 30
0.0
 11
51.15206899999999
 21
12.017348
 31
0.0
  0
SPLINE
  5
33AC
330
18
100
AcDbEntity
  8
0
100
AcDbSpline
210
0.0
220
0.0
230
1.0
 70
     8
 71
     3
 72
    11
 73
     7
 74
     0
 42
0.0000000001
 43
0.0000000001
 40
0.0
 40
0.0
 40
0.0
 40
0.0
 40
0.0606258347336383
 40
0.1832189383580526
 40
0.3034320459400337
 40
0.3601256361756171
 40
0.3601256361756171
 40
0.3601256361756171
 40
0.3601256361756171
 10
51.15206899999999
 20
12.017348
 30
0.0
 10
51.12946130525022
 20
12.01822935643162
 30
0.0
 10
51.06113799310165
 20
12.02089292701051
 30
0.0
 10
51.06158180875841
 20
11.89227611096766
 30
0.0
 10
51.06253561612895
 20
11.77055373286892
 30
0.0
 10
51.0008347281869
 20
11.7649942164909
 30
0.0
 10
50.97982458091488
 20
11.76453023828321
 30
0.0
  0
LINE
  5
33BC
330
18
100
AcDbEntity
  8
0
100
AcDbLine
 10
50.964569
 20
11.74893404080049
 30
0.0
 11
50.964569
 21
11.701848
 31
0.0
  0
SPLINE
  5
33C3
330
18
100
AcDbEntity
  8
0
100
AcDbSpline
210
0.0
220
0.0
230
1.0
 70
     8
 71
     3
 72
    11
 73
     7
 74
     5
 42
0.0000000001
 43
0.0000000001
 44
0.0000000001
 40
0.0
 40
0.0
 40
0.0
 40
0.0
 40
0.1793430527962766
 40
0.2915971984697095
 40
0.5910018972961857
 40
0.7106455302274087
 40
0.7106455302274087
 40
0.7106455302274087
 40
0.7106455302274087
 10
50.964569
 20
11.701848
 30
0.0
 10
50.91644144868993
 20
11.66872942589841
 30
0.0
 10
50.83818996968137
 20
11.61488132152658
 30
0.0
 10
50.71727417830286
 20
11.420200266046
 30
0.0
 10
50.98183178560322
 20
11.31893021426298
 30
0.0
 10
51.11425926804626
 20
11.3274231567969
 30
0.0
 10
51.152069
 20
11.329848
 30
0.0
 11
50.964569
 21
11.701848
 31
0.0
 11
50.82721925230953
 21
11.58652680769064
 31
0.0
 11
50.777069
 21
11.48609800000001
 31
0.0
 11
51.03242538819942
 21
11.32977689238775
 31
0.0
 11
51.152069
 21
11.329848
 31
0.0
  0
ARC
  5
33E0
330
18
100
AcDbEntity
  8
0
100
AcDbCircle
 10
51.39005359452678
 20
11.31783259452679
 30
0.0
 40
0.2382877193662412
100
AcDbArc
 50
177.1096954119249
 51
272.8903045880746
  0
ARC
  5
33E2
330
18
100
AcDbEntity
  8
0
100
AcDbCircle
 10
50.98016900000112
 20
11.74893404080735
 30
0.0
 40
0.0156
100
AcDbArc
 50
91.26508740731667
 51
180.0000000251965
  0
ARC
  5
33E3
330
18
100
AcDbEntity
  8
0
100
AcDbCircle
 10
51.04116524735287
 20
13.032948
 30
0.0
 40
0.0156
100
AcDbArc
 50
187.4286486554204
 51
270.0
  0
ARC
  5
33E4
330
18
100
AcDbEntity
  8
0
100
AcDbCircle
 10
50.855169
 20
13.24387629232429
 30
0.0
 40
0.0156
100
AcDbArc
 50
180.0
 51
255.3829488333969
  0
ARC
  5
33EB
330
18
100
AcDbEntity
  8
0
100
AcDbCircle
 10
50.71456900000001
 20
14.04649580818145
 30
0.0
 40
0.0625
100
AcDbArc
 50
180.0
 51
228.8398239247581
  0
LINE
  5
33EC
330
18
100
AcDbEntity
  8
0
100
AcDbLine
 10
50.714569
 20
14.757348
 30
0.0
 11
50.714569
 21
14.74644233757106
 31
0.0
  0
ARC
  5
33F0
330
18
100
AcDbEntity
  8
0
100
AcDbCircle
 10
50.70456899999999
 20
14.757348
 30
0.0
 40
0.01
100
AcDbArc
 50
0.0
 51
90.0
  0
ARC
  5
33F1
330
18
100
AcDbEntity
  8
0
100
AcDbCircle
 10
50.70456899999999
 20
14.74644233757106
 30
0.0
 40
0.01
100
AcDbArc
 50
269.3002669624437
 51
0.0
  0
LINE
  5
33F3
330
18
100
AcDbEntity
  8
0
100
AcDbLine
 10
45.017631
 20
15.204848
 30
0.0
 11
24.017631
 21
15.204848
 31
0.0
  0
LINE
  5
33F4
330
18
100
AcDbEntity
  8
0
100
AcDbLine
 10
45.017631
 20
14.767348
 30
0.0
 11
24.017631
 21
14.767348
 31
0.0
  0
LINE
  5
33F5
330
18
100
AcDbEntity
  8
0
100
AcDbLine
 10
45.017631
 20
14.142348
 30
0.0
 11
24.017631
 21
14.142348
 31
0.0
  0
LINE
  5
33F6
330
18
100
AcDbEntity
  8
0
100
AcDbLine
 10
45.017631
 20
14.04649580818145
 30
0.0
 11
24.017631
 21
14.04649580818145
 31
0.0
  0
LINE
  5
33F7
330
18
100
AcDbEntity
  8
0
100
AcDbLine
 10
45.017631
 20
13.51734740573535
 30
0.0
 11
24.017631
 21
13.51734740573535
 31
0.0
  0
LINE
  5
33F8
330
18
100
AcDbEntity
  8
0
100
AcDbLine
 10
45.017631
 20
13.35650882109435
 30
0.0
 11
24.017631
 21
13.35650882109435
 31
0.0
  0
LINE
  5
33F9
330
18
100
AcDbEntity
  8
0
100
AcDbLine
 10
45.017631
 20
13.24387629232429
 30
0.0
 11
24.017631
 21
13.24387629232429
 31
0.0
  0
LINE
  5
33FA
330
18
100
AcDbEntity
  8
0
100
AcDbLine
 10
45.017631
 20
13.017348
 30
0.0
 11
24.017631
 21
13.017348
 31
0.0
  0
LINE
  5
33FB
330
18
100
AcDbEntity
  8
0
100
AcDbLine
 10
45.017631
 20
12.017348
 30
0.0
 11
24.017631
 21
12.017348
 31
0.0
  0
LINE
  5
33FC
330
18
100
AcDbEntity
  8
0
100
AcDbLine
 10
45.017631
 20
11.74893404080735
 30
0.0
 11
24.017631
 21
11.74893404080735
 31
0.0
  0
LINE
  5
33FD
330
18
100
AcDbEntity
  8
0
100
AcDbLine
 10
45.017631
 20
11.701848
 30
0.0
 11
24.017631
 21
11.701848
 31
0.0
  0
LINE
  5
33FE
330
18
100
AcDbEntity
  8
0
100
AcDbLine
 10
45.017631
 20
11.329848
 30
0.0
 11
24.017631
 21
11.329848
 31
0.0
  0
LINE
  5
33FF
330
18
100
AcDbEntity
  8
0
100
AcDbLine
 10
45.017631
 20
11.079848
 30
0.0
 11
24.017631
 21
11.079848
 31
0.0
  0
LINE
  5
3400
330
18
100
AcDbEntity
  8
0
100
AcDbLine
 10
45.017631
 20
9.704848
 30
0.0
 11
24.017631
 21
9.704848
 31
0.0
  0
LINE
  5
3401
330
18
100
AcDbEntity
  8
0
100
AcDbLine
 10
45.017631
 20
14.74644233757106
 30
0.0
 11
24.017631
 21
14.74644233757106
 31
0.0
  0
ENDSEC
  0
SECTION
  2
OBJECTS
  0
DICTIONARY
  5
C
330
0
100
AcDbDictionary
281
     1
  3
ACAD_COLOR
350
3316
  3
ACAD_GROUP
350
D
  3
ACAD_IMAGE_DICT
350
21
  3
ACAD_IMAGE_VARS
350
20
  3
ACAD_LAYOUT
350
3317
  3
ACAD_MATERIAL
350
3315
  3
ACAD_MLINESTYLE
350
1B
  3
ACAD_PLOTSETTINGS
350
3318
  3
ACAD_PLOTSTYLENAME
350
3313
  0
DICTIONARY
  5
3316
102
{ACAD_REACTORS
330
C
102
}
330
C
100
AcDbDictionary
281
     1
  0
DICTIONARY
  5
D
102
{ACAD_REACTORS
330
C
102
}
330
C
100
AcDbDictionary
281
     1
  0
DICTIONARY
  5
21
102
{ACAD_REACTORS
330
C
102
}
330
C
100
AcDbDictionary
281
     1
  3
3304-1
350
22
  3
3304-1B
350
1C41
  3
3304-2
350
25
  3
3304-2B
350
1C44
  3
3304-3
350
28
  3
3304-3B
350
1C47
  0
RASTERVARIABLES
  5
20
102
{ACAD_REACTORS
330
C
102
}
330
C
100
AcDbRasterVariables
 90
        0
 70
     1
 71
     1
 72
     0
  0
DICTIONARY
  5
3317
102
{ACAD_REACTORS
330
C
102
}
330
C
100
AcDbDictionary
281
     1
  3
Layout1
350
331A
  3
Model
350
3319
  0
DICTIONARY
  5
3315
102
{ACAD_REACTORS
330
C
102
}
330
C
100
AcDbDictionary
281
     1
  0
DICTIONARY
  5
1B
102
{ACAD_REACTORS
330
C
102
}
330
C
100
AcDbDictionary
281
     1
  3
STANDARD
350
1C
  0
DICTIONARY
  5
3318
102
{ACAD_REACTORS
330
C
102
}
330
C
100
AcDbDictionary
281
     1
  0
ACDBDICTIONARYWDFLT
  5
3313
102
{ACAD_REACTORS
330
C
102
}
330
C
100
AcDbDictionary
281
     1
  3
Normal
350
3314
100
AcDbDictionaryWithDefault
340
3314
  0
IMAGEDEF
  5
22
102
{ACAD_REACTORS
330
21
102
}
330
21
100
AcDbRasterImageDef
 90
        0
  1
U:\TPDWG\MichelQ\3304-1.tif
 10
2243.0
 20
3009.0
 11
0.070556
 21
0.070556
280
     1
281
     5
  0
IMAGEDEF
  5
1C41
102
{ACAD_REACTORS
330
21
102
}
330
21
100
AcDbRasterImageDef
 90
        0
  1
U:\TPDWG\MichelQ\3304-1b.TIF
 10
2202.0
 20
2931.0
 11
0.070556
 21
0.070556
280
     1
281
     5
  0
IMAGEDEF
  5
25
102
{ACAD_REACTORS
330
21
102
}
330
21
100
AcDbRasterImageDef
 90
        0
  1
U:\TPDWG\MichelQ\3304-2.tif
 10
2243.0
 20
3009.0
 11
0.070556
 21
0.070556
280
     1
281
     5
  0
IMAGEDEF
  5
1C44
102
{ACAD_REACTORS
330
21
102
}
330
21
100
AcDbRasterImageDef
 90
        0
  1
U:\TPDWG\MichelQ\3304-2b.TIF
 10
2202.0
 20
2931.0
 11
0.070556
 21
0.070556
280
     1
281
     5
  0
IMAGEDEF
  5
28
102
{ACAD_REACTORS
330
21
102
}
330
21
100
AcDbRasterImageDef
 90
        0
  1
U:\TPDWG\MichelQ\3304-3.tif
 10
2243.0
 20
3009.0
 11
0.070556
 21
0.070556
280
     1
281
     5
  0
IMAGEDEF
  5
1C47
102
{ACAD_REACTORS
330
21
102
}
330
21
100
AcDbRasterImageDef
 90
        0
  1
U:\TPDWG\MichelQ\3304-3b.TIF
 10
2202.0
 20
2931.0
 11
0.070556
 21
0.070556
280
     1
281
     5
  0
LAYOUT
  5
331A
102
{ACAD_REACTORS
330
3317
102
}
330
3317
100
AcDbPlotSettings
  1

  2
None
  4

  6

 40
0.0
 41
0.0
 42
0.0
 43
0.0
 44
0.0
 45
0.0
 46
0.0
 47
0.0
 48
0.0
 49
0.0
140
0.0
141
0.0
142
1.0
143
1.0
 70
   688
 72
     0
 73
     0
 74
     5
  7

 75
    16
147
1.0
 76
     0
 77
     2
 78
   300
148
0.0
149
0.0
100
AcDbLayout
  1
Layout1
 70
     1
 71
     1
 10
0.0
 20
0.0
 11
420.0
 21
297.0
 12
0.0
 22
0.0
 32
0.0
 14
1.000000000000000E+20
 24
1.000000000000000E+20
 34
1.000000000000000E+20
 15
-1.000000000000000E+20
 25
-1.000000000000000E+20
 35
-1.000000000000000E+20
146
0.0
 13
0.0
 23
0.0
 33
0.0
 16
1.0
 26
0.0
 36
0.0
 17
0.0
 27
1.0
 37
0.0
 76
     0
330
15
  0
LAYOUT
  5
3319
102
{ACAD_REACTORS
330
3317
102
}
330
3317
100
AcDbPlotSettings
  1

  2
None
  4

  6

 40
0.0
 41
0.0
 42
0.0
 43
0.0
 44
0.0
 45
0.0
 46
0.0
 47
0.0
 48
0.0
 49
0.0
140
0.0
141
0.0
142
1.0
143
1.0
 70
  1712
 72
     0
 73
     0
 74
     0
  7

 75
     0
147
1.0
 76
     0
 77
     2
 78
   300
148
0.0
149
0.0
100
AcDbLayout
  1
Model
 70
     1
 71
     0
 10
0.0
 20
0.0
 11
12.0
 21
9.0
 12
0.0
 22
0.0
 32
0.0
 14
0.0
 24
0.0
 34
0.0
 15
0.0
 25
0.0
 35
0.0
146
0.0
 13
0.0
 23
0.0
 33
0.0
 16
1.0
 26
0.0
 36
0.0
 17
0.0
 27
1.0
 37
0.0
 76
     0
330
18
  0
MLINESTYLE
  5
1C
102
{ACAD_REACTORS
330
1B
102
}
330
1B
100
AcDbMlineStyle
  2
STANDARD
 70
     0
  3

 62
   256
 51
90.0
 52
90.0
 71
     2
 49
0.5
 62
   256
  6
BYLAYER
 49
-0.5
 62
   256
  6
BYLAYER
  0
ACDBPLACEHOLDER
  5
3314
102
{ACAD_REACTORS
330
3313
102
}
330
3313
  0
ENDSEC
  0
EOF
